Oops, an error
Loading. Please wait.

I Turn My Camera On Bass Tab

version 3
version 3

Whole song

6,734 views 9 this week
2 commentsread comments
1 2 3 4 5
excellent!
x 6
add to favorites
launch autoscroll
font size
0
reset
guitar tuner
Tab Pro tools
  • play this tab
  • loop segment
  • change instrument
  • show fretboard
  • metronome
×
Best way to learn
"I Turn My Camera On"
Autoscroll
slow
fast
+/-
esc
set tempo
stop
Contributor
Difficulty
novice
Standard Tuning.

~ means slide

G|----------------------------------------------------------|
D|-7--7--7--7--7--7--7--9--10--10--10--10--10--10--10--10-9-|   2X
A|----------------------------------------------------------|
E|----------------------------------------------------------|

G|----------------------------------------------------------|
D|-7--7--7--7--7--7--7--7--10--10--10--10--10--10--10--10---|   2X
A|----------------------------------------------------------|
E|----------------------------------------------------------|

G|----------------------------------------------------------|
D|-7--7--7--7--7--7--7-----10--10--10------10--10--10-------|   1X
A|----------------------7--------------10--------------10---|
E|----------------------------------------------------------|

G|----------------------------------------------------------|
D|-7--7--7-----7--7--7--7~~10--10--10------10--10--10--9----|   1X
A|----------7----------7---------------10-------------------|
E|----------------------------------------------------------|

G|----------------------------------------------------------|
D|-7--7--7--7--7--7--7-----10--10--10------10--10--10-------|   1X
A|----------------------7------------------------------10---|
E|----------------------------------------------------------|

G|----------------------------------------------------------|
D|-7--7--7--7--7--7--7--9--10--10--10--10--10--10--10--10---|   1X
A|----------------------------------------------------------|
E|----------------------------------------------------------|


G|----------------------------------------------------------|
D|-7--7--7--7--7--7--7--9--10--10--10--10--10--10-----------|   1X
A|----------------------------------------------------------|
E|-------------------------------------------------8-8-7-7--|

G|----------------------------------------------------------|
D|----7-----7-----7-----7-----10-----10-----10---10-10-9-9--|   1X
A|----------------------------------------------------------|
E|-5-----5-----5-----5-----8------8------8------------------|

G|--------------------------------------------------------------|
D|-7--7--7--7--7--7--7--7--10--10--10--10--10--10--10-10-9-9----|   1X
A|--------------------------------------------------------------|
E|--------------------------------------------------------------|

G|----------------------------------------------------------|
D|-7--7--7--7--7--7--7--7--9--10--10--10--10--10--10--10-9--|   1X
A|----------------------------------------------------------|
E|----------------------------------------------------------|

G|----------------------------------------------------------|
D|-7--7--7--7--7--7--7--7-----------------------------------|   1X
A|----------------------------------------------------------|
E|-------------------------8--8--8--8--8--8--8--7-----------|

G|----------------------------------------------------------|
D|-7--7--7--7--7--7--7--9--10--10--10--10--10--10-----------|   1X
A|----------------------------------------------------------|
E|-------------------------------------------------8-8-7-7--|

G|----------------------------------------------------------|
D|----------------------7---9--10--10--10--10--10-----------|   1X
A|------------------------7---------------------------------|
E|-5--5--5--5--5--5--5-----------------------------8-8-7-7--|

G|----------------------------------------------------------|
D|----7--7--7--7--7--7--7--10--10--10--10--10--10-----------|   1X
A|----------------------------------------------------------|
E|-5-----------------------------------------------8-8-7-7--|

G|----------------------------------------------------------|
D|-7--7--7--7--7--7--7--7--10--10--10--10--10--10--10--10---|   1X
A|----------------------------------------------------------|
E|----------------------------------------------------------|

G|----------------------------------------------------------|
D|-7--7--7--7--7--7--7--7--10--10--10--10--10--10-----------|   1X
A|----------------------------------------------------------|
E|-------------------------------------------------8--7-----|

G|----------------------------------------------------------|
D|--------------------------------------------10---9--------|   1X
A|----------------------------------------------------------|
E|-5--5--5--5--5--5--5-0-5-7-8--8--8--8--8--8----8---7------|

G|----------------------------------------------------------|
D|-7--7--7--7-----7--------------10-----10----10------------|   1X
A|----------------------------------------------------------|
E|-------------5-----5-0-5-7--8------8-----8-----8-8-7-7----|

G|----------------------------------------------------------|
D|-7--7--7--7--7--7--7--9--10--10--10--10--10--10--10--10---|   2X
A|----------------------------------------------------------|
E|----------------------------------------------------------|

G|----------------------------------------------------------|
D|-7--7--7--7--7--7-----7-----7-----7--7--7-----7-----------|   1X
A|----------------------------------------------------------|
E|-------------------5-----5-----5-----------5--------------|

I think that's pretty close to it. This is my first tab, so let me know what you think!
comments
print report bad tab
2 comments total.
+1 reply
jonny awesome wrote on April 5 2008, 06:00 pm

Quick Correction: The fifth line there should not exist. Just skip from the fourth to the sixth.

Also, the third line should look like
G|----------------------------------------------------------|
D|-7--7--7-----7--7--7--7--10--10--10------10--10--10-------| 1X
A|----------7--------------------------10--------------10---|
E|----------------------------------------------------------|

rather than
G|----------------------------------------------------------|
D|-7--7--7--7--7--7--7-----10--10--10------10--10--10-------| 1X
A|----------------------7--------------10--------------10---|
E|----------------------------------------------------------|

0 reply
Pale_Pilgrim wrote on August 17 2014, 11:02 pm

Here's my tweak of your tab, no big changes but I find it reads easier and sounds right.

Standard Tuning [EADG]
/ means slide
No repeat marker - i.e., (x4) - means play riff only 1 time

Main Riff (x4)
G|----------------------------------------------------------|
D|-7--7--7--7--7--7--7--9--10--10--10--10--10--10--10--10-9-|
A|----------------------------------------------------------|
E|----------------------------------------------------------|

First Instrumental Chorus
G|----------------------------------------------------------|
D|-7--7--7-----7--7--7--7--10--10--10------10--10--10-------|
A|----------7--------------------------10--------------10---|
E|----------------------------------------------------------|

G|----------------------------------------------------------|
D|-7--7--7-----7--7--7--7/-10--10--10------10--10--10--9----|
A|----------7----------7---------------10-------------------|
E|----------------------------------------------------------|

Repeat Main Riff

Variation One
G|----------------------------------------------------------|
D|-7--7--7--7--7--7--7--9--10--10--10--10--10--10-----------|
A|----------------------------------------------------------|
E|-------------------------------------------------8-8-7-7--|

Second Instrumental Chorus
G|----------------------------------------------------------|
D|----7-----7-----7-----7-----10-----10-----10---10-10-9-9--|
A|----------------------------------------------------------|
E|-5-----5-----5-----5-----8------8------8------------------|

G|------------------------------------------------------------|
D|-7--7--7--7--7--7--7--7--10--10--10--10--10--10--10-10-9-9--|
A|------------------------------------------------------------|
E|------------------------------------------------------------|

Repeat Main Riff

Variation Two and Three
G|----------------------------------------------------------|
D|-7--7--7--7--7--7--7--7-----------------------------------|
A|----------------------------------------------------------|
E|-------------------------8--8--8--8--8--8--8--7-----------|

G|----------------------------------------------------------|
D|-7--7--7--7--7--7--7--9--10--10--10--10--10--10-----------|
A|----------------------------------------------------------|
E|-------------------------------------------------8-8-7-7--|

Third Instrumental Chorus
G|----------------------------------------------------------|
D|----------------------7---9--10--10--10--10--10-----------|
A|------------------------7---------------------------------|
E|-5--5--5--5--5--5--5-----------------------------8-8-7-7--|

G|----------------------------------------------------------|
D|----7--7--7--7--7--7--7--10--10--10--10--10--10-----------|
A|----------------------------------------------------------|
E|-5-----------------------------------------------8-8-7-7--|

Repeat Main Riff

Last Variation
G|----------------------------------------------------------|
D|-7--7--7--7--7--7--7--7--10--10--10--10--10--10-----------|
A|----------------------------------------------------------|
E|-------------------------------------------------8--7-----|

Last Chorus
G|----------------------------------------------------------|
D|--------------------------------------------10---9--------|
A|----------------------------------------------------------|
E|-5--5--5--5--5--5--5-0-5-7-8--8--8--8--8--8----8---7------|

G|----------------------------------------------------------|
D|-7--7--7--7-----7--------------10-----10----10------------|
A|----------------------------------------------------------|
E|-------------5-----5-0-5-7--8------8-----8-----8-8-7-7----|

Repeat Main Riff (x2)

Outro
G|----------------------------------------------------------|
D|-7--7--7--7--7--7-----7-----7-----7--7--7-----7-----------|
A|----------------------------------------------------------|
E|-------------------5-----5-----5-----------5--------------|

I want to post or [tab]
guest
You may want to rate the tab now too:
select rating
Please do not post tabs as comments. Select "correction" instead!