Oops, an error
Loading. Please wait.

Metal School Tab

642 views 1 this week
no commentswrite comment
1 2 3 4 5
please rate
add to favorites
launch autoscroll
font size
0
reset
how to read this tab
guitar tuner
Autoscroll
slow
fast
+/-
esc
set tempo
stop
Help us to improve Ultimate-Guitar.com Take our survey!
×
Author
Difficulty
novice
-------------------------------------------------------------------------------
                             Metal School - Spoon
-------------------------------------------------------------------------------
Tabbed by: TheTroy
Tuning: Standard

Intro/Verse pt.1
e|-0~------------------------------------------------------------------------|
B|-6~--6-6-6-6-6-6-6-6-6-6-6-6-6-6-6-6-6-6-6-6-6-6-6-6-6-6-6-6-6-6-6-6-------|
G|-----7-5-7-5-7-5-7-5-7-5-7-5-7-5-7-5-7-5-7-5-7-5-7-5-7-5-7-5-7-5-7-5-------|
D|---------------------------------------------------------------------------|
A|---------------------------------------------------------------------------|
E|---------------------------------------------------------------------------|

Verse Pt.2. Guitar 2 kicks in
e|-0~---0~-------------------------------------------------------------------|
B|-1~---2~---3~------------------3~---8~-------------------------------------|
G|-2~---2~---3~---0~---7~---0~---3~---8~-------------------------------------|
D|-2~---2~---3~---2~---7~---2~---3~---8~-------------------------------------|
A|-0~---0~---1~---3~---5~---3~---1~---6~-------------------------------------|
E|---------------------5~----------------------------------------------------|

Chorus? (i dont know if its a chorus or not)
e|---------------------------------------------------------------------------|
B|---------------------------------------------------------------------------|
G|-9--X12--9--------10-------9--X12--9--------10-------9--X12--9-------------|
D|-10------11--X12--12--X24--10------11--X12--12--X24--10------11--X12-------|
A|---------------------------------------------------------------------------|
E|---------------------------------------------------------------------------|

The After Chorus x2
e|-------------0-0-0-0-0-----------------------------------------------------|
B|---7-x-7-7-x-1-1-0-0-0-2~--3-3-3-3-2-2-------------------------------------|
G|---7-x-7-7-x-2-2-0-0-0-2~--3-3-3-3-2-2-------------------------------------|
D|-7-7-x-7-7-x-3-3-3-0-0-2~--3-3-3-3-2-2-------------------------------------|
A|-5-5-x-5-5-x-3-3-3-2-2-4~--1-1-1-1-0-0-------------------------------------|
E|-------------------3-3-----------------------------------------------------|

Bridge?
e|---------------------------------------------------------------------------|
B|---------------------------------------------------------------------------|
G|-7-7-x7-7-xx7-7-x7-7-xx7-7-x7-7-xx7-7-x7-7---------------------------------|
D|-x-x-xx-x-xxx-x-xx-x-xxx-x-xx-x-xxx-x-xx-x---------------------------------|
A|-5-5-x5-5-xx5-5-x5-5-xx5-5-x5-5-xx5-5-x5-5---------------------------------|
E|---------------------------------------------------------------------------|

Back to verse (but chords only played 24 times. not 32)
e|---------------------------------------------------------------------------|
B|-6-6-6-6-6-6-6-6-6-6-6-6-6-6-6-6-6-6-6-6-6-6-6-6---------------------------|
G|-7-5-7-5-7-5-7-5-7-5-7-5-7-5-7-5-7-5-7-5-7-5-7-5---------------------------|
D|---------------------------------------------------------------------------|
A|---------------------------------------------------------------------------|
E|---------------------------------------------------------------------------|

verse pt. 2

Chorus

After Chorus

Then the bridge but it adds a solo
e|---------------------------------------------------------------------------|
B|---------------------------------------------------------------------------|
G|-7-7-x7-7-xx7-7-x7-7-xx7-7-x7-7-xx7-7-7/12\-7-7-7/12\-7-7-7/12\-7-7-7/12\--|
D|-x-x-xx-x-xxx-x-xx-x-xxx-x-xx-x-xxx-x-x/xx\-x-x-x/xx\-x-x-x/xx\-x-x-x/xx\--|
A|-5-5-x5-5-xx5-5-x5-5-xx5-5-x5-5-xx5-5-5/10\-5-5-5/10\-5-5-5/10\-5-5-5/10\--|
E|---------------------------------------------------------------------------|

e|---------------------------------------------------------------------------|
B|---------------------------------------------------------------------------|
G|-14------12-12-14----------------------------------------------------------|
D|-xx--x12-xx-xx-xx--X12-Then just keep sliding around with the chords-------|
A|-12------10-10-12----------------------------------------------------------|
E|---------------------------------------------------------------------------|

Listen to the song to get the Solo right


| /  slide up
| \  slide down
| h  hammer-on
| p  pull-off
| ~  vibrato
| +  harmonic
| x  Mute note
===============================================================================
Suggest correction
Give kudos to tab author, rate the tab!
1 2 3 4 5
comments
print report bad tab
guest
You may want to rate the tab now too:
select rating
Wanna post a correction for this tab? Suggest correction