Oops, an error
Loading. Please wait.

Rhythm And Soul Bass Tab

1,983 views 3 this week
1 commentread comment
1 2 3 4 5
excellent!
x 1
add to favorites
launch autoscroll
font size
0
reset
guitar tuner
Tab Pro tools
  • play this tab
  • loop segment
  • change instrument
  • show fretboard
  • metronome
Autoscroll
slow
fast
+/-
esc
set tempo
stop
Contributor
This ain't perfect but tis a decent bass i think to improvise over the top in places, 
(if you got an improvements/adjustments let me know at stuffedfish@jerseymail.co.uk, cheers)

Intro
G:---------------------------|
D:---------------------------|
A:---------------------------|
E:-15\----15\----15\----15\--|


Verse 1
G:----------------------------------|
D:----------------------------------|
A:----------------------------------| x2
E:-5--5-5--5--5-5--8--8-8--3--3-3---|

G:----------------------------------|
D:----------------------------------|
A:-----------------7--7-7--8--8-8---|
E:-5--7-7--5-5-7-7------------------|
              *
G:----------------------------------|
D:----------------------------------|
A:-----------------7--7-7--8--8-8---|
E:-5--------2-3-5-------------------|

G:----------------------------------|
D:----------------------------------|
A:----------------------------------|
E:-8--8-8--8--8-8--3--3-3--3--3-3---|

G:----------------------------------|
D:----------------------------------|
A:----------------------------------|
E:-5--5-5--5--5-5--0--0-0--1--1-1---|

G:---------------------------|
D:---------------------------|
A:---------------------------|
E:-15\----15\----15\----15\--|


Verse 2
G:-----------------------------------|
D:-----------------------------------|
A:-------------------------10--10-10-|
E:-5--5-5--5--5-5--8--8-8------------|

G:-----------------------------------|
D:-----------------------------------|
A:-------------------------10--10-10-|
E:-5--5-5--5--5-5--8--8-8-----10-10--|

G:-----------------------------------|
D:-7--7-7--7--7--7-------------------|
A:-----------7--7---7--7-7--8--8-8---|
E:-----------------------------------|
               *
G:----------------------------------|
D:----------------------------------|
A:-----------2-4-6-7--7-7--8--8-8---|
E:-5-[fill]-------------------------|

G:----------------------------------|
D:----------------------------------|
A:----------------------------------|
E:-8--8-8--8--8-8--3--3-3--3--3-3---|

G:----------------------------------|
D:----------------------------------|
A:----------------------------------|
E:-5--5-5--5--5-5--0--0-0--1--1-1---|

G:----------------|
D:----------------|
A:----------------|
E:-5--5-5--5-5-5--|

Bridge/Solo
G:----------------------------------|
D:----------------------------------|
A:-5--5-5--5--5-5-------------------|
E:------------------5--5-5--5--5-5--|

G:----------------------------------|
D:----------------------------------|
A:-5--5-5--5--5-5-------------------|
E:------------------0--0-0--0--0-0--|

G:----------------------------------|
D:----------------------------------|
A:----------------------------------| x2
E:-5--5-5--5--5-5--8--8-8--3--3-3---|

G:----------------------------------|
D:----------------------------------|
A:----------------------------------|
E:-8--8-8--8--8-8--3--3-3--3--3-3---|

G:----------------------------------|
D:----------------------------------|
A:-----------------7--7-7--8--8-8---|
E:-5--5-5--5--5-5-------------------|


Verse 3
G:----------------------------------|
D:----------------------------------|
A:----------------------------------| x2
E:-5--5-5--5--5-5--8--8-8--3--3-3---|

G:----------------------------------|
D:-7--9-9--7-7-9-9------------------|
A:-----------------7--7-7--8--8-8---|
E:----------------------------------|
              *
G:----------------------------------|
D:----------------------------------|
A:-----------------7--7-7--8--8-8---|
E:-5--------2-3-5-------------------|

G:----------------------------------|
D:----------------------------------|
A:----------------------------------|
E:-8--8-8--8--8-8--3--3-3--3--3-3---|

G:----------------------------------|
D:----------------------------------|
A:----------------------------------|
E:-5--5-5--5--5-5--0--0-0--1--1-1---|

G:---------------------------|
D:---------------------------|
A:---------------------------|
E:-15\----15\----15\----15\--|
comments
We did not receive enough feedback on this tab! Please rate:
print report bad tab
1 2 3 4 5
1 comment total.
0 reply
coreyhyka wrote on January 26 2010, 10:10 pm

It's definitely

G|-------|
D|-------|
A|--12\--|
E|-------|

as opposed to

G|-------|
D|-------|
A|-------|
E|--15\--|

I want to post or [tab]
guest
You may want to rate the tab now too:
select rating
Please do not post tabs as comments. Select "correction" instead!