Oops, an error
Loading. Please wait.

Rhythm And Soul Chords

16,368 views 9 this week
3 commentsread comments
1 2 3 4 5
x 6
add to favorites
launch autoscroll
font size
0
reset
transpose
0
reset
display chords
guitar tuner
Autoscroll
slow
fast
+/-
esc
set tempo
stop
Help us to improve Ultimate-Guitar.com Take our survey!
×
Difficulty
novice
Spoon - Rhthm & Soul

Intro riff:
E---5-----7--7-----|
B---5-----5--5-----|   repeat
G---7--------------|
D---7--------------|
A---5--------------|
E---5--------------|

Am
Come loosen up So hung up
C                         G
Come count them ways to forever
Am
Remember the winter
C                            G           Am
gets cold in ways you always forget

E
Ah you know
F                Am
Mm-a RHYTHM AND SOUL
E
Gets your hands out your back pockets
F          C
Boy let it go
G                                Am
Here comes the man you saw in Kazan
                     E
He just fixing his coat
F             Am
Rhythm and soul


Dollars and cents ain't no accident
Not in the name of democracy
Come get there
Come be there
Come let your socks fall down to your shoes
And you know rhythm and soul
Gets your ankles moving their sockets
Oooh there you go
Here comes the man
He followed you from Kazan
He can't leave it alone
Ah no, rhythm and soul

D                                             Am
When you take a picture and it falls in your lap
D                                             E
Take another picture and you're springing the trap
F
You've been sold

C
You can't bat this with your eye
G                        E
Change your tie and get wise
F
Rhythm and


Tract houses
Square couches
Short legs and square shoulders
Pot holders
Egg and soldiers
Y'tank rollers
You all know this
Yeah you know
Oooh the rhythm and soul

Get your fingers moving their sockets, tune in Tokyo
You're just the man
The one I saw in Kazan
One of us went for the throat
RHYTHM AND
Suggest correction
comments
print report bad tab
3 comments total.
+3 reply
talkimoto 10 Feb 15, 2009 06:37 PM

Intro riff should be:
E---5-----7--7-----|
B---5-----5--5-----| repeat
G---5--------------|
D---7--------------|
A---7--------------|
E---5--------------|

+1 reply
waxtheledge 105 Sep 02, 2011 01:01 AM

Great tab!! I was interested in the little solo Britt does but it was posted. So I figured it out so everyone can enjoy. Please correct if wrong.

e-----------------------------------------------------------------------------------------------------------------------
B-----------------------------------------------------------------------------------------------------------------------
G-----------------------------------------------------------------------------------------------------------------------
D--------------------2-3--0-2---------------2-3-2-0-------2-3--0-2--------------------------9---7---7---5--2-2-2-2----
A-----0-2-3-2-----------------3-5-----2-0-----------3-2---------------3-5----2--3------10--10---7---7---5--3-3-2-0----
E----0---------3-0-----------------3------------------------------------------------------------------------------------

+2 reply
sivanpalmon 10 May 19, 2013 05:34 PM

the chorus is dm not d

guest
You may want to rate the tab now too:
select rating
Wanna post a correction for this tab? Suggest correction