Oops, an error
Loading. Please wait.

Small Stakes Tab

version 2
version 2

Whole song

507 views 1 this week
no commentswrite comment
1 2 3 4 5
please rate
add to favorites
launch autoscroll
font size
0
reset
how to read this tab
guitar tuner
Autoscroll
slow
fast
+/-
esc
set tempo
stop
Help us to improve Ultimate-Guitar.com Take our survey!
×
Author
Intro and first part of verse
e|-----------------------|
b|-----------------------|
g|-----------------------|
d|7----7----7---7---7----|
a|7-00-5-00-4-0-5-0-6-0--|
E|-----------------------|

Second part of verse
e|-----------------------|
b|-----------------------|
g|-----------------------|
d|9----9----9---9---9----|
a|9-00-7-00-6-0-7-0-8-0--|
E|-----------------------|

Then just switch between the two as the song changes pitch.
Suggest correction
Give kudos to tab author, rate the tab!
1 2 3 4 5
comments
print report bad tab
guest
You may want to rate the tab now too:
select rating
Please do not post tabs as comments. Select "correction" instead!