Oops, an error
Loading. Please wait.

Something To Look Forward To Tab

1,842 views 3 this week
no commentswrite comment
1 2 3 4 5
accurate
x 1
add to favorites
launch autoscroll
font size
0
reset
how to read this tab
guitar tuner
Tab Pro tools
  • play this tab
  • loop segment
  • change instrument
  • show fretboard
  • metronome
Autoscroll
slow
fast
+/-
esc
set tempo
stop
Contributor
Band  : Spoon
Song  : Something to Look Forward to
Tab by: Heath Moore

Chords progressions
G5  35xxxx
A5  57xxxx
E5  02xxxx
F5  13xxxx
C5  x35xxx
G5

C5  x35xxx
Em  025xxx
A5  57xxxx
D5  x57xxx
Bm  x2443x (Riff2)

Am  x0221x (tabbed below)
G?  3x200x
D   xx0232


Riff 1 (played for pretty much all G5 chords)
A-------5\---------6\-----------|
E--3-3-------3--3---------------|

Verse 1

G5         A5          E5        F5
Now carole don't get ahead of yourself
           C5           G5
Don't say nothing right now
              C5 Em  A5            D5    Riff2
I'll take it         anywhere you let it go


Riff2 (Bm)
e--------------------0-0-0-(2)----|
B--------------------3-3-3-(3)----|
G--------------------4-4-4--------|
D-----4--x-4-4-4-x-4--------------| x2
A--2--2--x-0-0-2-x-2--------------|
E---------------------------------|


                  Everything moving so fast

                  It'll take you a place where you

   Am      G?            D
e-------------------------------2-2h3p2-0-------|
B------1p0-----0----------------3-3-------3-----|
G------2-------0--------------2-------------2---|
D----2-------2--------------0-------------------| (Something similar to this)
A--0--------------------------------------------|
E----------3------------------------------------|

   can't get back  And I've seen it enough


   Am      GaddA            D
e-------------------------------2-2h3-3-3-3-----|
B------1p0-----0----------------3-3---3-3-3-----|
G------2-------0--------------2-------2-2-2-----|
D----2-------2--------------0-------------------|
A--0--------------------------------------------|
E----------3------------------------------------|

             You gotta      make me shut up  (So there's)


Riff3 (played where indicated)
D--5---5\--6---6\--7---7\--8---8\---|
A--3-3-3-3-3-3-3-3-3-3-3-3-3-3-3-3--|

           G5                           Riff3
So there's something to look forward to

       G5                           Riff3
Gimme something to look forward to


Verse 2
Your mistakes your merciless eye
Your Chicago manual of style
It only's got to go just as far as we let it go
So carole let me know

So many things we could say
So many things we could let get out
But you stay in instead
Some things are best left unsaid

Gimme something to look forward to

End Riff

D--5---5\--6---6\--7---7\--8---8\------|
A--3-3-3-3-3-3-3-3-3-3-3-3-3-3-3-3---5-|
E----------------------------------0-3-
comments
We did not receive enough feedback on this tab! Please rate:
print report bad tab
1 2 3 4 5
I want to post or [tab]
guest
You may want to rate the tab now too:
select rating
Please do not post tabs as comments. Select "correction" instead!