Oops, an error
Loading. Please wait.

Stay Dont Go Tab

version 3
version 3

Whole song

806 views 3 this week
no commentswrite comment
1 2 3 4 5
please rate
add to favorites
launch autoscroll
font size
0
reset
how to read this tab
guitar tuner
Autoscroll
slow
fast
+/-
esc
set tempo
stop
Help us to improve Ultimate-Guitar.com Take our survey!
×
Contributor
-------------------------------------------------------------------------------
                             Stay Don’t Go - Spoon
-------------------------------------------------------------------------------
Tabbed by: T4125103
Email: T4125103@AOL.com


Tuning: Standard

Intro:
e|-------------------------------------|
B|-------------------------------------|
G|-------------------------------------|
D|-5-5-5-5--7-7-7-7--------------------|x2
A|-3-3-3-3--5-5-5-5--7-7-7-5--7-7-7-7--|
E|-------------------5-5-5-3--5-5-5-5--|

e|-------------------------------------|
B|-------------------------------------|
G|-------------------------------------|
D|-5-5-5-5--4-4-4----------------------|x2
A|-3-3-3-3--5-5-5-5--7-7-7-5--7-7-7-7--|
E|----------------3--5-5-5-3--5-5-5-5--|

Verse:
e|---------------------------------------|
B|---------------------------------------|
G|---------------------------------------| 
D|-5-5-5-5--4-4-4------------------------|
A|-3-3-3-3--5-5-5-5-5/7-7-7--5-5/7-7-7-7-|
E|----------------0-3/5-5-5--0-3/5-5-5-5-|

Pre-Chorus:
e|-------------------------------------|
B|-------------------------------------|
G|-------------------------------------| 
D|-5-5-5-5--4-4-4----------------------|
A|-3-3-3-3--5-5-5-5-5/7-7-7-7--7-7-7-7-|
E|----------------0-3/5-5-5-5--4-4-4-4-|

Chorus:
e|------------------|
B|------------------|
G|------------------| 
D|-5-5-5-5--4-4-4-4-|x3
A|-3-3-3-3--5-5-5-5-|
E|------------------|

e|---------------------------------------|
B|---------------------------------------|
G|---------------------------------------| 
D|-5-5-5-5--4-4-4------------------------|
A|-3-3-3-3--5-5-5-5-5/7-7-7--5-5/7-7-7-7-|
E|----------------0-3/5-5-5--0-3/5-5-5-5-|




Guitar #2 Lick:
e|----------------|
B|----------------|
G|----------------|
D|----------------|
A|-------3-5/7----|
E|-0-3-5-------5--|



| /  slide up
| \  slide down
| h  hammer-on
| p  pull-off
| ~  vibrato
| +  harmonic
| x  Mute note
===============================================================================

Suggest correction What's this?
You can suggest a correction to this tab. Community and Mods will review your correction and vote to approve or reject it.
comments
We did not receive enough feedback on this tab! Please rate:
print report bad tab
1 2 3 4 5
I want to post or [tab]
guest
You may want to rate the tab now too:
select rating
Please do not post tabs as comments. Select "correction" instead!