Oops, an error
Loading. Please wait.

The Delicate Place Tab

5,321 views 6 this week
1 commentread comment
1 2 3 4 5
x 6
add to favorites
launch autoscroll
font size
0
reset
how to read this tab
guitar tuner
Autoscroll
slow
fast
+/-
esc
set tempo
stop
Help us to improve Ultimate-Guitar.com Take our survey!
×
Author
The Delicate Place

INTRO RIFF (G)
E ----------------------------|
B ----------------------------|
G -------------------------0~-|
D ----------------------------|
A --2-2-x-0-0-x-3-3-3-x-2-2---|
E --3-3-x-3-3-x-3-3-3-x-3-3---| (repeat)

G
I got nothing,
G                                       Bb                      (A)
You got something to feel out of place.
Ah looking through your window,
Suggest correction
comments
print report bad tab
1 comment total.
0 reply
mirinator 10 Jul 03, 2011 06:36 PM

Intro Continued:
E -------------------------------|
B -------------------------------|
G -------------------------------|
D -------------------------------|
A --2-2-x-5-5-x-3-3-3-3-x-2-x-0--|
E --3-3-x-3-3-x-3-3-3-3-x-3-x-3--|

E -------------------------------|
B -------------------------------|
G ------------------------0------|
D -------------------------------|
A --2-2-x-5-5-x-3-x-3-3-x-2-x-0--|
E --3-3-x-3-3-x-3-x-3-3-x-3-x-3--|

guest
You may want to rate the tab now too:
select rating
Wanna post a correction for this tab? Suggest correction