Oops, an error
Loading. Please wait.

Way We Get By Bass Tab

version 2
version 2

Whole song

Interactive

2,505 views 1 this week
no commentswrite comment
1 2 3 4 5
please rate
add to favorites
launch autoscroll
font size
0
reset
guitar tuner
Tab Pro tools
  • play this tab
  • loop segment
  • change instrument
  • show fretboard
  • metronome
×
Best way to learn
"Way We Get By"
Autoscroll
slow
fast
+/-
esc
set tempo
stop
Contributor
-------------------------------------------------------------------------------
			                           The Way We Get By - Spoon
-------------------------------------------------------------------------------

Tabbed By : Killerpanda
e-mail: arpa92@gmail.com

Tuning: Standard

INTRO 0:12
G|---------------------------------------------------------------------------|
D|--3--3/7-7-7-7-5-5-5-5-3-3-3-3-7-7-7-7-5-5-5-5-3-3-3-3---------------------|
A|5--5-----------------------------------------------------------------------|
E|---------------------------------------------------------------------------|

VERSE 0:29
G|---------------------------------------------------------------------------|x2
D|---------------------------------------------------------------------------|
A|---------------------------------------------------------------------------|
E|5---1-3-1-3/5---5---1-3-1-3/5----1-3-1-3/5---5---1-3-1-3/5-----------------|

CHORUS 0:42
G|---------------------------------------------------------------------------|X3
D|---------------------------------------------------------------------------|
A|---------------------------------------------------------------------------|
E|5-5-5-5-3-3-3-3-1-1-1-1----------------------------------------------------|

0:56
G|---------------------------------------------------------------------------|
D|7-7-7-7--------------------------------------------------------------------|X4
A|---------------------------------------------------------------------------|
E|---------------------------------------------------------------------------|
*Make a slide down ( \ ) in last 7

VERSE 1:02
G|5--5--5--5-1-3-1-3/5-------------------------------------------------------|X5
D|---------------------------------------------------------------------------|
A|---------------------------------------------------------------------------|
E|---------------------------------------------------------------------------|

CHORUS 1:15
G|---------------------------------------------------------------------------|
D|7-7-7-7-5-5-5-5-3-3--------------------------------------------------------|
A|---------------------------------------------------------------------------|
E|--------------------1-3-1-3/5-5-5-5-3-3-3-3-1-1-1-1-5-5-5-5-3-3-3-3-1-1-1-1|

G|---------------------------------------------------------------------------|
D|---------------------------------------------------------------------------|
A|---------------------------------------------------------------------------|
E|5--5--5--5-1-3-5--5--5--5\-------------------------------------------------|

PIANO BREAK 1:43
G|5-5-5-5-3-3-3-3-1-1-1-1/12-12-12-12-12-12----------------------------------|
D|---------------------------------------------------------------------------|
A|---------------------------------------------------------------------------|
E|---------------------------------------------------------------------------|

G|---------------------------------------------------------------------------|
D|3-3-3-3-2-2-2-2-2-2-2-2-2-2-0-2--------------------------------------------|X2
A|---------------------------------------------------------------------------|
E|---------------------------------------------------------------------------|

LITTLE SOLO 2:00
G|---------------------------------------------------------------------------|
D|/7p5-----------------------------------------------------------------------|
A|----h7p5-------------------------------------------------------------------|
E|--------h8p7p5-------------------------------------------------------------|

VERSE 2:02
G|---------------------------------------------------------------------------|
D|---------------------------------------------------------------------------|
A|---------------------------------------------------------------------------|
E|5---1-3-1-3/5---5---1-3-1-3/5----1-3-1-3/5---5---1-3-1-3/5-----------------|

CHORUS 2:15
G|---------------------------------------------------------------------------|
D|7-7-7-7-5-5-5-5-3-3--------------------------------------------------------|
A|---------------------------------------------------------------------------|
E|--------------------1-3-1-3/5-5-5-5-3-3-3-3-1-1-1-1-5-5-5-5-3-3-3-3-1-1-1-1|

ENDING 2:29
G|---------------------------------------------------------------------------|
D|---------------------------------------------------------------------------|
A|---------------------------------------------------------------------------|
E|5--5--5-0-1-3--------------------------------------------------------------|

PLEASE RATE!

Well thats basically it for my favorite song. The only part im not sure of is 
the little solo part, still, I think I got it all right. If you got any corrections, 
don't doubt to email me. Im sure you'll have fun playing this song.. So enjoy! 


| /  slide up
| \  slide down
| h  hammer-on
| p  pull-off
| ~  vibrato
| +  harmonic
| x  Mute note
===============================================================================
comments
We did not receive enough feedback on this tab! Please rate:
print report bad tab
1 2 3 4 5
I want to post or [tab]
guest
You may want to rate the tab now too:
select rating
Please do not post tabs as comments. Select "correction" instead!