Oops, an error
Loading. Please wait.

Vamos tab

7,916 views 6 this week
no commentswrite comment
1 2 3 4 5
x 4
add to favorites
×
Save as Personal and add changes to this tab that will be seen only by you. Learn more ›
×
You can save this tab as Personal to edit and correct it or add notes. All changes will be seen only by you. Learn more »
launch autoscroll
font size
0
reset
how to read this tab
guitar tuner
edit
Autoscroll
slow
fast
+/-
esc
set tempo
stop
Author
Standard tuning, two guitars


Intro

Guitar 2

E|--------------------------------------------------|
H|---1------1----1------1----1------1----1------1---|
G|--------0-----------0-----------0-----------0-----|
D|------2-----------2-----------2-----------2-------|
A|---3-------3---3-------3---3-------3---3-------3--|
E|--------------------------------------------------|

E|--------------------------------------------------|
H|---0------0----0------0----0------0----0------0---|
G|--------0-----------0-----------0-----------0-----|
D|------2-----------2-----------2-----------2-------|
A|--------------------------------------------------|
E|---0-------0---0-------0---0-------0---0-------0--|

E|--------------------------------------------------|
H|---1------1----1------1----1------1----1------1---|
G|--------0-----------0-----------0-----------0-----|
D|------2-----------2-----------2-----------2-------|
A|---3-------3---3-------3---3-------3---3-------3--|
E|--------------------------------------------------|

E|--------------------------------------------------|
H|---3------3----3--------1--0------0----0------0---|
G|--------0-----------0-----------0-----------0-----|
D|------0-----------0-----------0-----------0-------|
A|--------------------------------------------------|
E|---3-------3---3-----------3-------3---3-------3--|


Guitar 2 plays this throughout the (pre-)verses



Pre-Verse 1

Guitar 1

C                                Em
  Ba ba ba ba ba, ba ba ba ba ba ba
                                 C
  Ba ba ba ba ba, ba ba ba ba ba ba
                                 G
  Ba ba ba ba ba, ba ba ba ba ba ba



Verse 1

Guitar 1

(no chords)
All die Sachen, die die wilden Rocker machen

All die Dinge, von denen sie oft singen

All die Taten, auf die wir schon so lange warten
G
  Ich sag dir, diese Nacht ist wie gemacht dafuer



Chorus

Guitar 1

D
  Vamos!
Bm
  Vamos!
G            Em                     
  Tomate ya... la porcion para dos! 
Am          D
  Por que no en esta 
G         Em
  Noche de verano?



Pre-Verse 2

Guitar 1

C                                Em
  Ba ba ba ba ba, ba ba ba ba ba ba
                                 C
  Ba ba ba ba ba, ba ba ba ba ba ba
                                 G
  Ba ba ba ba ba, ba ba ba ba ba ba



Verse 2

Guitar 1

(no chords)
All die Worte, die uns gross erschein

All die Traeume, die uns vereinen

All die Zeiten, die uns im Gedaechtnis bleiben
G
  Ich sag dir, diese Nacht ist wie gemacht dafuer


Chorus

Guitar 1

D
  Vamos!
Bm
  Vamos!
G            Em                     
  Tomate ya... la porcion para dos! 
Am          D
  Por que no en esta 
G         Em
  Noche de verano?

D
  Vamos!
Bm
  Vamos!
G            Em                     
  Tomate ya... la porcion para dos! 
Am          D
  Por que no en esta 
G         Em       D (let ring)
  Noche de verano?



Break

Guitar 2

E|--------------------------------------------------|
H|---3------3----3------3----3------3----3------3---|
G|--------4-----------4-----------0-----------0-----|    x5
D|------4-----------4-----------0-----------0-------|
A|---2-----------2----------------------------------|
E|---------------------------3-----------3----------|

E|-------------------------------|
H|---3------3----3------3----3---|
G|--------4-----------4----------|    
D|------4-----------4------------|
A|---2-----------2---------------|
E|---------------------------3---|



Pre-Chorus

Guitar 1

Am             D
   Por que no... Por que no...
G              Em
   Por que no... Por que no...
Am          D 
  Por que no en esta 
G         Em
  Noche de verano?



Chorus

Guitar 1

D
  Vamos! (Por qué no...)
Bm
  Vamos! (Por qué no...)
G            Em                     
  Tomate ya... la porcion para dos! 
Am          D
  Por que no en esta 
G         Em
  Noche de verano?

D
  Vamos! (Por qué no...)
Bm
  Vamos! (Por qué no...)
G           Em                     
  Tomate ya... la porcion para dos! 
Am          D
  Por que no en esta 
G         Em
  Noche de verano?


Dunno, what the second guitar is playing during the chorus ... 

For any corrections, please send an e-mail to coookie@gmx.de

            
            
Suggest correction
Creating personal tab
Creating personal tab
You can edit any tab online and save it as your Personal.

You can edit, replace or remove any tab part or add personal notes – all changes will be seen only by you.

Personal tabs can be accessed anytime from any device, even offline.
Learn more »
comments
print report bad tab
guest
You may want to rate the tab now too:
select rating
Wanna post a correction for this tab? Suggest correction