Oops, an error
Loading. Please wait.

Svarta Pisten intro tab

106 views 1 this week
no commentswrite comment
1 2 3 4 5
1 last vote to show rating
add to favorites
×
Save as Personal and add changes to this tab that will be seen only by you. Learn more ›
×
You can save this tab as Personal to edit and correct it or add notes. All changes will be seen only by you. Learn more »
launch autoscroll
font size
0
reset
how to read this tab
guitar tuner
edit
Autoscroll
slow
fast
+/-
esc
set tempo
stop
SVARTA PISTEN
Sportlov

Tuning: DROP D

[INTRO] 123 BPM

 (Clean Gtr)

    |--3--|  |--3--|  |--3--|  |--3--|     |--3--|  |--3--|  |--3--|  |--3--|
e|-----------0-----------------7--------|-----------0-----------------7----------|
B|--------6-----6-----------6-----6-----|--------6-----6-----------6-----6-------|
G|-----7-----------7-----7-----------7--|-----7-----------7-----7-----------7----|
D|--0-----------------6-----------------|--0-----------------6-------------------|
A|--------------------------------------|----------------------------------------|
D|--------------------------------------|----------------------------------------|

    |--3--|  |--3--|  |--3--|  |--3--|     |--3--|  |--3--|  |--3--|  |--3--|
e|-----------0-----------------7--------|-----------0-----------------7----------|
B|--------6-----6-----------6-----6-----|--------6-----6-----------6-----6-------|
G|-----7-----------7-----7-----------7--|-----7-----------7-----7-----------7----|
D|--0-----------------6-----------------|--0-----------------6-------------------|
A|--------------------------------------|----------------------------------------|
D|--------------------------------------|----------------------------------------|

 (Dist Gtr)

              |----3----|    |--3--|               |--3--|  |--3--|
e|------------------------------------|----------------------------------|
B|------------------------------------|----------------------------------|
G|------------------------------------|------------7/10-10--10\6--6------|
D|------------------------------------|------------5/8---8---8\4--4------|
A|--0----0----6---6-6-6-6----6--6--6--|--0----0--------------------------|
D|--0----0----6---6-6-6-6----6--6--6--|--0----0--------------------------|
              PM-------------------|

              |----3----|    |--3--|               |--3--|  |--3--|
e|------------------------------------|----------------------------------|
B|------------------------------------|----------------------------------|
G|------------------------------------|------------7/10-10--10\6--6------|
D|------------------------------------|------------5/8---8---8\4--4------|
A|--0----0----6---6-6-6-6----6--6--6--|--0----0--------------------------|
D|--0----0----6---6-6-6-6----6--6--6--|--0----0--------------------------|
              PM-------------------|

              |----3----|    |--3--|               |--3--|  |--3--|
e|------------------------------------|----------------------------------|
B|------------------------------------|----------------------------------|
G|------------------------------------|------------7/10-10--10\6--6------|
D|------------------------------------|------------5/8---8---8\4--4------|
A|--0----0----6---6-6-6-6----6--6--6--|--0----0--------------------------|
D|--0----0----6---6-6-6-6----6--6--6--|--0----0--------------------------|
              PM-------------------|

              |----3----|    |--3--|               |--3--|  |--3--|
e|------------------------------------|------------------------------------|
B|------------------------------------|------------------------------------|
G|------------------------------------|------------7/10-10--10\6--6--------|
D|------------------------------------|------------5/8---8---8\4--4--------|
A|--0----0----6---6-6-6-6----6--6--6--|--0----0-----------------------0----|
D|--0----0----6---6-6-6-6----6--6--6--|--0----0-----------------------0----|
              PM-------------------|                                  let ring     

 (Clean Gtr)

    |--3--|  |--3--|  |--3--|  |--3--|     |--3--|  |--3--|  |--3--|  |--3--|
e|-----------------------------7--------|-----------------------------7----------|
B|--------6--5--6-----------6-----6-----|--------6--5--6-----------6-----6-------|
G|-----7-----------7-----7-----------7--|-----7-----------7-----7-----------7----|
D|--------------------6-----------------|--------------------6-------------------|
A|--5-----------------------------------|--5-------------------------------------|
D|--------------------------------------|----------------------------------------|

    |--3--|  |--3--|  |--3--|  |--3--|     |--3--|  |--3--|  |--3--|  |--3-------|
e|-----------------------------7--------|-----------------------------7----------|
B|--------6--5--6-----------6-----6-----|--------6--5--6-----------6-----6-------|
G|-----7-----------7-----7-----------7--|-----7-----------7-----7-----------7----|
D|--------------------6-----------------|--------------------6-------------------|
A|--5-----------------------------------|--5-------------------------------------|
D|--------------------------------------|----------------------------------------|

 (Dist Gtr)

              |----3----|    |---3---|             |--3--|  |--3--|
e|------------------------------------|--------------------------------|
B|------------------------------------|--------------------------------|
G|------------------------------------|------------7/10-10--10\6--6----|
D|------------------------------------|------------5/8---8---8\4--4----|
A|--0----0----6---6-6-6-6----6--6--6--|--0----0------------------------|
D|--0----0----6---6-6-6-6----6--6--6--|--0----0------------------------|
              PM-------------------------------------------------------|

              |----3----|    |---3---|             |--3--|  |--3--|
e|------------------------------------|--------------------------------|
B|------------------------------------|--------------------------------|
G|------------------------------------|------------7/10-10--10\6--6----|
D|------------------------------------|------------5/8---8---8\4--4----|
A|--0----0----6---6-6-6-6----6--6--6--|--0----0------------------------|
D|--0----0----6---6-6-6-6----6--6--6--|--0----0------------------------|
              PM-------------------------------------------------------|

              |----3----|    |---3---|             |--3--|  |--3--|
e|------------------------------------|--------------------------------|
B|------------------------------------|--------------------------------|
G|------------------------------------|------------7/10-10--10\6--6----|
D|------------------------------------|------------5/8---8---8\4--4----|
A|--0----0----6---6-6-6-6----6--6--6--|--0----0------------------------|
D|--0----0----6---6-6-6-6----6--6--6--|--0----0------------------------|
              PM-------------------------------------------------------|

              |----3----|    |---3---|             |--3--|  |--3--|
e|------------------------------------|----------------------------------|
B|------------------------------------|----------------------------------|
G|------------------------------------|------------7/10-10--10\6--6------|
D|------------------------------------|------------5/8---8---8\4--4------|
A|--0----0----6---6-6-6-6----6--6--6--|--0----0-----------------------0--|
D|--0----0----6---6-6-6-6----6--6--6--|--0----0-----------------------0--|
              PM---------------------------------------------------------|
                   let ring


[VERSE] 123 BPM

 (Dist Gtr)

e|----------------------|--------------------|
B|----------------------|--------------------|
G|----------------------|--------------------|
D|--9--7/9--12/11--5/8--|--9--7/9--12/11--5--|
A|--7--5/7--10/9---3/6--|--7--5/7--10/9---3--|
D|----------------------|--------------------|

e|----------------------|--------------------|
B|----------------------|--------------------|
G|----------------------|--------------------|
D|--9--7/9--12/11--5/8--|--9--7/9--12/11--5--|
A|--7--5/7--10/9---3/6--|--7--5/7--10/9---3--|
D|----------------------|--------------------|

e|-----|
B|-----|
G|-----|
D|--9--|
A|--7--|
D|-----|

e|----------------------|--------------------|
B|----------------------|--------------------|
G|----------------------|--------------------|
D|--9--7/9--12/11--5/8--|--9--7/9--12/11--5--|
A|--7--5/7--10/9---3/6--|--7--5/7--10/9---3--|
D|----------------------|--------------------|

e|----------------------|--------------------|
B|----------------------|--------------------|
G|----------------------|--------------------|
D|--9--7/9--12/11--5/8--|--9--7/9--12/11--5--|
A|--7--5/7--10/9---3/6--|--7--5/7--10/9---3--|
D|----------------------|--------------------|

e|----------------------|--------------------|
B|----------------------|--------------------|
G|----------------------|--------------------|
D|--9--7/9--12/11--5/8--|--9--7/9--12/11--5--|
A|--7--5/7--10/9---3/6--|--7--5/7--10/9---3--|
D|----------------------|--------------------|

e|----------------------|--------------------|
B|----------------------|--------------------|
G|----------------------|--------------------|
D|--9--7/9--12/11--5/8--|--9--7/9--12/11--5--|
A|--7--5/7--10/9---3/6--|--7--5/7--10/9---3--|
D|----------------------|--------------------|

[INTERLUDE] 123 BPM

 (Dist Gtr)
                                                           _
e|---------------------------------|-------------------|    \
B|---------------------------------|-------------------|    |
G|---------------------------------|-------------------|    |
D|--6--0---------------------------|--6--0----------1--|    |
A|--6--0---------------------------|--6--0----------1--|    |
D|--6--0--0-0-0-0-0-0-0-0-0-0-0-0--|--6--0--0-0-0-0-1--|    |
    |             |                   |             |       \
    1             2                   3             4        > x4
                                                            /
e|---------------------------------|-------------------|    |
B|---------------------------------|-------------------|    |
G|---------------------------------|-------------------|    |
D|--6--0---------------------------|--6----------------|    |
A|--6--0---------------------------|--4----------------|    |
D|--6--0--0-0-0-0-0-0-0-0-0-0-0-0--|-------------------|   _/
    |             |                   |             |
    1             2                   3             4


************************************
| /   Slide up
| \   Slide down
| PM  Palm mute
************************************

            
            
Suggest correction
Creating personal tab
Creating personal tab
You can edit any tab online and save it as your Personal.

You can edit, replace or remove any tab part or add personal notes – all changes will be seen only by you.

Personal tabs can be accessed anytime from any device, even offline.
Learn more »
Give kudos to tab author, rate the tab!
1 2 3 4 5
comments
print report bad tab
guest
You may want to rate the tab now too:
select rating
Wanna post a correction for this tab? Suggest correction