Oops, an error
Loading. Please wait.

Orioles Magic Chords

1,043 views 1 this week
no commentswrite comment
1 2 3 4 5
3 more votes to show rating
add to favorites
launch autoscroll
font size
0
reset
transpose
0
reset
simplify chords
display chords
guitar tuner
Autoscroll
slow
fast
+/-
esc
set tempo
stop
Help us to improve Ultimate-Guitar.com Take our survey!
×
Author
-------------------------------------------------------------------------------
                        ORIOLES MAGIC - Baltimore Orioles
-------------------------------------------------------------------------------
Tabbed by: Sam Krepps
Email: sam.krepps@gmail.com

Tuning: Standard

Nobody ever created a chord chart for this, so I thought I would do it.  Feel the magic.

horn intro:
e|------------------------------|
B|-------5----5----5-5----7-----|
G|-6----------------------------|
D|------------------------------|
A|------------------------------|
E|------------------------------|

A               D        E      E7     A    
Something magic happens, everytime you go
A                  D           B7                E7 
You make the magic happen, the magic of Orioles’ Baseball!

A                               D
When the game is close, and the O’s are hot
               E               E7            A
There’s a thundering roar from 34 to give it all they’ve got 
A                              D
And you never know who’s gonna hear the call

transition into G:
e|--------------------|
B|--------------------|
G|--------------------|
D|--------------------|
A|-5----5----5-4-3----|
E|--------------------|

G                    D
Every game there’s a different star
           B7                E
That’s the magic of Orioles’ Baseball! 

A
Orioles Magic! Feel it happen!
A
Orioles Magic! Feel it happen!
(dead pick)
O - R - I - O - L - E - S !

transition into D:
e|-------------------|
B|-------------------|
G|-------------------|
D|--------------2/4--|
A|-0--2--3--4--------|
E|-------------------|

D             E
Magic! Magic! Magic! Magic!

(the rest is like the first time through)

Something magic happens, everytime you go
You make the magic happen, the magic of Orioles’ Baseball! 

When Weaver moves and we score the runs
Nothing could be more exciting
Nothing could be more fun! 

There’s a love affair between you and the team
You’re the reason we win when we win
And you know what the magic means! 

Orioles Magic! Feel it happen!
Orioles Magic! Feel it happen!
Orioles Magic! Feel it happen!
Orioles Magic! Feel it happen!

O - R - I - O - L - E - S ! 

Magic! Magic! Magic! Magic! 

Orioles Magic! Feel it happen!

Magic! Magic! Magic! Magic! 

Something magic happens…




| /  slide up
| \  slide down
| h  hammer-on
| p  pull-off
| ~  vibrato
| +  harmonic
| x  Mute note
===============================================================================
Suggest correction
Give kudos to tab author, rate the tab!
1 2 3 4 5
comments
print report bad tab
guest
You may want to rate the tab now too:
select rating
Wanna post a correction for this tab? Suggest correction