Oops, an error
Loading. Please wait.

Mama Who Bore Me tab

version 1
version 1

Whole song

12,153 views 15 this week
no commentswrite comment
1 2 3 4 5
1 last vote to show rating
add to favorites
×
Save as Personal and add changes to this tab that will be seen only by you. Learn more ›
×
You can save this tab as Personal to edit and correct it or add notes. All changes will be seen only by you. Learn more »
launch autoscroll
font size
0
reset
how to read this tab
guitar tuner
edit
Autoscroll
slow
fast
+/-
esc
set tempo
stop
First of all this is my first tab ever and I hope I get if right. Sorry if there are 
mistakes...
Standart tuning / Capo 5. fret

Part A:
   E        G        D/F#     A
e|-----0--------3--------0--------0---------|
B|-------0--------3--------3--------2-------| repeat this riff through the
G|---------1--------0--------2--2-----2---2-|   whole "Mama who bore me"-part
D|---2--------0--------0----------------2---|
A|-------------------0--------0-------------|
E|-0--------3--------2--------0-------------|


Part B:
1.
   C        D/F#     A
e|-----0--------0--------0---------0---------|
B|-------3--------3--------2---------2-------|
G|---------1--------2--------2---2-----2---2-|
D|---2--------0--------2-----------------2---|
A|----------0--------0---------0-------------|
E|-0--------2--------0---------0-------------|
2.
   C        D/F#     Esus      E
e|-----0--------0--------0---------0---------|
B|-------3--------3--------0---------0-------| repeat this B riff through
G|---------1--------2--------2---1-----1---1-| the whole "some pray that one
D|---2--------0--------2-----------------2---|                     day"-part
A|----------0--------------------------------| And to the last
E|-0--------2--------0---------0-------------|

And at the end ofd the song, in the last verse you play the 2. B-part to " no peace in 
or bethlehem" and you end on E.

            
            
Suggest correction
Creating personal tab
Creating personal tab
You can edit any tab online and save it as your Personal.

You can edit, replace or remove any tab part or add personal notes – all changes will be seen only by you.

Personal tabs can be accessed anytime from any device, even offline.
Learn more »
Give kudos to tab author, rate the tab!
1 2 3 4 5
comments
print report bad tab
guest
You may want to rate the tab now too:
select rating
Wanna post a correction for this tab? Suggest correction