Oops, an error
Loading. Please wait.

Ready To Love tab

version 2
version 2

Whole song

by Spur 58
780 views 3 this week
no commentswrite comment
1 2 3 4 5
3 more votes to show rating
add to favorites
×
Save as Personal and add changes to this tab that will be seen only by you. Learn more ›
×
You can save this tab as Personal to edit and correct it or add notes. All changes will be seen only by you. Learn more »
launch autoscroll
font size
0
reset
how to read this tab
guitar tuner
edit
Autoscroll
slow
fast
+/-
esc
set tempo
stop
Author
Difficulty
Spur58
Ready to Love
if you feel corrections are necessary/have a queston email me at margerawood@aim.com

E standard tuning

notes: This song was transcribed assuming the piano is NOT present, if you want the 
part its the same as the chords for the chorus =)

\ =slide down
/ =slide up
p =pull off
b =bend
h =hammer on
pm =palm mute
t =tap
ring =ring notes out

order: Intro, Chorus, riff, verse 2, chorus, bridge, chorus 2, chorus, outro

Intro: note I included verse 1 in the intro, they're the same

Guitar 1
(First chord)
    F
E|--5----|
B|--6----|
G|--5----|
D|-------|
A|-------|
E|-------|

    Dm7       A#     F      Fsus2
E|--8---------6------5------3-----------------------------|
B|--6---------6------6------6-----------------------------|
G|--7---------7------5------5-----------------------------|
D|--7-----------------------3-----------------------------|
A|--------------------------------------------------------|
E|--------------------------------------------------------|x2

    Dm7       A#       all is peaceful, all is peaceful
E|--8---------6--------5------6---------5------3----------------|
B|--6---------6--------6------6---------6------6----------------|
G|--7---------7--------5------7---------5------5----------------|
D|--7------------------------------------------3----------------|
A|--------------------------------------------------------------|
E|--------------------------------------------------------------|

Guitar 2

    Dm7       A#     F       Fsus2
E|--12---13-------------------------------------------|
B|------------13-----15--10--8------------------------|
G|----------------------------------------------------|
D|----------------------------------------------------|
A|----------------------------------------------------|
E|----------------------------------------------------|

    Dm7       A#     F       Fsus2
E|--12------------------------------------------------|
B|------------13-----15--10--8------------------------|
G|----------------------------------------------------|
D|----------------------------------------------------|
A|----------------------------------------------------|
E|----------------------------------------------------|

    Dm7       A#     F          all is peaceful, all is peaceful
E|--12---13---15----------------10-----8---------5------3-----------|
B|------------------------------------------------------------------|
G|------------------------------------------------------------------|
D|------------------------------------------------------------------|
A|------------------------------------------------------------------|
E|------------------------------------------------------------------|

Chorus: (repeat the appropriate amount of times)
Guitar 1

     F        Dm7      F                 Fsus2
E|--------------------------------------------------------|
B|------------66666666-1010101010-1111-888888888----------|those are 10's and
G|---77777777---------------------------------------------| 11's
D|--------------------------------------------------------|
A|--------------------------------------------------------|
E|--------------------------------------------------------|

     F        Dm7      F                 Fsus2 
E|--------------------------------------------------------|
B|------------66666666-1010101010-1111-131313131313131313-|10's 11's 13's
G|---77777777---------------------------------------------|
D|--------------------------------------------------------|
A|--------------------------------------------------------|
E|--------------------------------------------------------|


Guitar 2
      F         Dm7         F        Fsus2
E|----13--------8-----------5--------3-----------------|
B|----13--------6-----------6--------6-----------------|
G|----14--------7-----------5--------5-----------------|each chord played 8x
D|----15--------7--------------------3-----------------|
A|-----------------------------------------------------|
E|-----------------------------------------------------|

Riff:
Guitar 1
   pm            pm            pm            pm
E|--------------------------------------------------------|
B|-5-6--5-6-5-6--5-6--5-6-5-6--5-6--5-6-5-6--5-6--5-6-5---|
G|------------------------------------------------------7-|
D|--------------------------------------------------------|
A|--------------------------------------------------------|
E|--------------------------------------------------------|

Guitar 2

      F         Dm7         F        Fsus2
E|----13--------8-----------5--------3-----------------|
B|----13--------6-----------6--------6-----------------|
G|----14--------7-----------5--------5-----------------|each chord played 8x
D|----15--------7--------------------3-----------------|
A|-----------------------------------------------------|
E|-----------------------------------------------------|

All verses:
Guitar 1

    Dm7       A#     F      Fsus2    Dm7      A#
E|--8---------6------5------3--------8--------6-----------|
B|--6---------6------6------6--------6--------6-----------|
G|--7---------7------5------5--------7--------7-----------|
D|--7-----------------------3--------7--------------------|
A|--------------------------------------------------------|
E|--------------------------------------------------------|

    all is peaceful, all is peaceful......
    F      A#        F      Fsus2
E|--5------6---------5------3-------------------------|
B|--6------6---------6------6-------------------------|
G|--5------7---------5------5-------------------------|
D|--------------------------3-------------------------|
A|----------------------------------------------------|
E|----------------------------------------------------|

Guitar 2

    Dm7       A#      F      all is peaceful, all is peaceful
E|--12---13---15--13---------10-----8---------5------3----------|
B|--------------------------------------------------------------|
G|--------------------------------------------------------------|
D|--------------------------------------------------------------|
A|--------------------------------------------------------------|
E|--------------------------------------------------------------|

this is the note that is played with the wah pedal before chorus 2 only
E|----------|
B|----------|
G|----9-----|
D|----------|
A|----------|
E|----------|

Bridge:
Guitar 1
Arpegiate these chords
      F         Dm7         F        Fsus2
E|----13--------8-----------5--------3-----------------|
B|----13--------6-----------6--------6-----------------|
G|----14--------7-----------5--------5-----------------|
D|----15--------7--------------------3-----------------|
A|-----------------------------------------------------|
E|-----------------------------------------------------|

   we will be,  alright, we will be, just fine
           Fadd9  Fsus2           Fadd9   Fsus2
E|---------5------3---------------5-------3-------|
B|---------6------6---------------6-------6-------|
G|---------5------5---------------5-------5-------|
D|---------5------3---------------5-------3-------|
A|------------------------------------------------|
E|------------------------------------------------|

Guitar 2
Strum and let ring out
      F         Dm7         F        Fsus2
E|----13--------8-----------5--------3-----------------|
B|----13--------6-----------6--------6-----------------|
G|----14--------7-----------5--------5-----------------|
D|----15--------7--------------------3-----------------|
A|-----------------------------------------------------|
E|-----------------------------------------------------|

   we will be,  alright, we will be, just fine
           Fadd9  Fsus2           Fadd9   Fsus2
E|---------5------3---------------5-------3-------|
B|---------6------6---------------6-------6-------|
G|---------5------5---------------5-------5-------|
D|---------5------3---------------5-------3-------|
A|------------------------------------------------|
E|------------------------------------------------|

Chorus 2: guitar + vocals + drum roll
     ring---------            ring--------
                t
E|---------------------------------------3---------------|
B|----------5-------------------------6------------------|
G|----7-----------------------5--------------------------|
D|--------------15---------------------------------------|
A|-------------------------------------------------------|
E|-------------------------------------------------------|x2

Outro:
Guitar 1

   pm            pm            pm            pm
E|--------------------------------------------------------|
B|-5-6--5-6-5-6--5-6--5-6-5-6--5-6--5-6-5-6--5-6--5-6-5---|
G|------------------------------------------------------7-|
D|--------------------------------------------------------|
A|--------------------------------------------------------|
E|--------------------------------------------------------|

   pm            pm            pm            pm
E|-----------------------------------------------------------|
B|-5-6--5-6-5-6--5-6--5-6-5-6--5-6--5-6-5-6--5-6--5-6-5------|
G|------------------------------------------------------7----|
D|-----------------------------------------------------------|
A|-----------------------------------------------------------|
E|-----------------------------------------------------------|

Guitar 2

      F         Dm7         F        Fsus2
E|----13--------8-----------5--------3-----------------|
B|----13--------6-----------6--------6-----------------|
G|----14--------7-----------5--------5-----------------|
D|----15--------7--------------------3-----------------|
A|-----------------------------------------------------|
E|-----------------------------------------------------|

(harmony with guitar 1)
   pm               pm               pm               pm
E|------------------------------------------------------------------------|
B|-8-10--8-10-8-10--8-10--8-10-8-10--8-10--8-10-8-10--8-10--8-10-8--8b10--|
G|------------------------------------------------------------------------|
D|------------------------------------------------------------------------|
A|------------------------------------------------------------------------|
E|------------------------------------------------------------------------|

            
            
Suggest correction
Creating personal tab
Creating personal tab
You can edit any tab online and save it as your Personal.

You can edit, replace or remove any tab part or add personal notes – all changes will be seen only by you.

Personal tabs can be accessed anytime from any device, even offline.
Learn more »
Give kudos to tab author, rate the tab!
1 2 3 4 5
comments
print report bad tab
guest
You may want to rate the tab now too:
select rating
Wanna post a correction for this tab? Suggest correction