Oops, an error
Loading. Please wait.

My World bass

by SPYAIR
527 views 1 this week
no commentswrite comment
1 2 3 4 5
3 more votes to show rating
add to favorites
×
Save as Personal and add changes to this tab that will be seen only by you. Learn more ›
×
You can save this tab as Personal to edit and correct it or add notes. All changes will be seen only by you. Learn more »
launch autoscroll
font size
0
reset
guitar tuner
edit
Autoscroll
slow
fast
+/-
esc
set tempo
stop
Author
-------------------------------------------------------------------------------
                             My World - SPYAIR
-------------------------------------------------------------------------------

Tabbed by: Bloodlives

E-mail: Trapstar2468@yahoo.com

Tuning: Standard

Credit To: m1rmus1c


Intro (0:02)

G|---------------------------------------------------------------------------|
D|--0--0----0--0----0--0----0--0---------------------------------------------|
A|-----------------------------------1--1----1--1----1--1----1--1----3--3----|
E|---------------------------------------------------------------------------|

G|---------------------------------------------------------------------------|
D|---------------------------------------------------------------------------|
A|-----------------------------------3--3----3--3----3--0----1--3------------|
E|--1--1----1--1----1--1----1--1---------------------------------------------|

G|---------------------------------------------------------------------------|
D|---------------------------------------------------------------------------|
A|--5--5----5--5----5--5----5--5---------------------------------------------|
E|-----------------------------------6--6----6--6----6--6----6---------------|

G|---------------------------------------------------------------------------|
D|---------------------------------------------------------------------------|
A|----------------------------------------------x----------------------------|
E|--0--0----0--0----0--0----0--0-----1--1---1-3---3--------------------------|

Verse 1 (0:017)

G|---------------------------------------------------------------------------|
D|---------------------------------------------------------------------------|
A|--5--5----5--5----5--------------------------------------------------------|
E|---------------------5----5----6--6----6--6----6--6----5--3----------------|

G|---------------------------------------------------------------------------|
D|---------------------------------------------------------------------------|
A|-----------------------------------------------------3---------------------|
E|--1--1----1--1----1--1----1--1----0--0----0--0----0-------0--0-------------|

G|---------------------------------------------------------------------------|
D|---------------------------------------------------------------------------|
A|--5--5----5--5----5--5----5--5---------------------------------------------|
E|----------------------------------6--6----6--6----6--6----5--3-------------|

G|---------------------------------------------------------------------------|
D|---------------------------------------------------------------------------|
A|----------------------------------3--3----3--3\----8--8----8--8------------|
E|--1--1----1--1----1--1----1--1---------------------------------------------|

G|---------------------------------------------------------------------------|
D|---------------------------------------------------------------------------|
A|--5--5----5--5----5--5----5------------------------------------------------|
E|-----------------------------5----6--6----6--6----6--6----6--6-------------|

G|---------------------------------------------------------------------------|
D|---------------------------------------------------------------------------|
A|-----------------------------------------------------3----3----------------|
E|--1--1----1--1----1--1----1--1----0--0----0--0----0------------------------|

Pre- Chorus (0:37)

G|---------------------------------------------------------------------------|
D|---------------------------------------------------------------------------|
A|--5--5----5--5----5--5----5------------------------------------------------|
E|-----------------------------5----6--6----6--6----6--6----6--6-------------|


G|---------------------------------------------------------------------------|
D|---------------------------------------------------------------------------|
A|-----------------------------------------------------------x--10-----------|
E|--1--1----1--13----13--13----12--10--------8---8----8-8--------------------|

Chorus (0:45)

G|---------------------------------------------------------------------------|
D|--------------------------------------------------------3------------------|
A|--------------------------8--------3--3----3----3------------3-------------|
E|--6----6-6--6----6----6------6---------------------------------------------|

G|---------------------------------------------------------------------------|
D|---------------------------------------------------------------------------|
A|---------------------------------------------------------------------------|
E|---------------------------------------------------------------------------|

G|---------------------------------------------------------------------------|
D|------------------------------7--7----7--7----7--7----5--------------------|
A|--5----5-5--5----5----5--8-------------------------------------------------|
E|---------------------------------------------------------------------------|

G|---------------------------------------------------------------------------|
D|---------------------------------------------------------------------------|
A|--------------------------8--------3--3----3--3----3-----------------------|
E|--6----6-6--6----6----6------6------------------------3----1--0------------|

G|---------------------------------------------------------------------------|
D|-----------------------------7--7----7--7----7--7----5----------------------|
A|--5---5-5----5---5--5---5--------------------------------------------------|
E|---------------------------------------------------------------------------|


G|---------------------------------------------------------------------------|
D|---------------------------------------------------------------------------|
A|---------------------------8--------3--3----3--3----3----------------------|
E|--6---6--6--6----6-----6------6------------------------3----1--0-----------|


G|---------------------------------------------------------------------------|
D|-----------------------------7--7----7--7----7--7----5---------------------|
A|--5---5-5----5---5--5---5--------------------------------------------------|
E|---------------------------------------------------------------------------|


G|---------------------------------------------------------------------------|
D|---------------------------------------------------------------------------|
A|--------------------------8--------3--3----3--3----3----------3------------|
E|--6----6-6--6----6----6------6------------------------0----5---------------|

G|---------------------------------------------------------------------------|
D|---------------------------------------------------------------------------|
A|--4------4---4--4-----4----4--4-----5--5----5--5----5--5----3--2-----------|
E|---------------------------------------------------------------------------|

(1:06)
G|---------------------------------------------------------------------------|
D|-------------------------------3-------------------------------------------|
A|--1-----1--1-----1-----1----1-----1----3---3-----3\----15--15----15--15----|
E|---------------------------------------------------------------------------|


Post-Chorus Riff (1:09)

G|---------------------------------------------------------------------------|
D|--0--0----0--0----0--0----0--0---------------------------------------------|
A|-----------------------------------1--1----1--1----1--1----1--1----3--3----|
E|---------------------------------------------------------------------------|

G|---------------------------------------------------------------------------|
D|---------------------------------------------------------------------------|
A|-----------------------------------3-----3--3-----3-3----3--0----1--3------|
E|--1--1----1--1----1--1----1--1---------------------------------------------|


Verse 2 (1:16)

G|---------------------------------------------------------------------------|
D|---------------------------------------------------------------------------|
A|--5--5----------------------------------------------------3----------------|
E|-------------6--6--------6----3--5---------1--1-----1--------1-------------|


G|---------------------------------------------------------------------------|
D|----------------------------------2----------------------------------------|
A|-------------------------------3-------------------------------------------|
E|--0--0--------0-------0----0-----------------------------------------------|


G|---------------------------------------------------------------------------|
D|-------------------7--------------------8------5--7------------------------|
A|--5--5--------5-------5----------------------------------------------------|
E|--------------------------------5--5---------------------------------------|


G|---------------------------------------------------------------------------|
D|---------------------------------------------------------------------------|
A|--------------------------3------------3-----3-----3-----------------------|
E|--1--1-------1-------1-------1---------------------------8-----------------|

Verse 2 Con. (1:30)

G|---------------------------------------------------------------------------|
D|---------------------------------------------------------------------------|
A|--5--5----5--5----5--5----5------------------------------------------------|
E|-----------------------------5-----6--6----6--6----6--6----6--6------------|


G|---------------------------------------------------------------------------|
D|---------------------------------------------------------------------------|
A|------------------------------------------------------3------3-------------|
E|--1--1----1--1----1--1----1--1-----0--0----0--0----0-----------------------|


G|---------------------------------------------------------------------------|
D|---------------------------------------------------------------------------|
A|--5--5----5--5----5--5----5------------------------------------------------|
E|-----------------------------5-----6--6----6--6----6--6----6--6------------|


G|---------------------------------------------------------------------------|
D|---------------------------------------------------------------------------|
A|---------------------------------------------------------------------------|
E|--1--1----1--13----13--13----13--13----------------------------------------|


Pre- Chorus (1:43)

G|---------------------------------------------------------------------------|
D|--10(x8)-------10----------------------------------------------------------|
A|---------------------------------------------------------------------------|
E|---------------------------------------------------------------------------|

Repeat Chorus


Bridge (2:08)

G|---------------------------------------------------------------------------|
D|---------------------------------------------------------------------------|
A|---------------------------------------------------------------------------|
E|--10r-------10r------------8------8------8---------------------------------|


(2:16)

G|---------------------------------------------------------------------------|
D|---------------------------------------------------------------------------|
A|---------------------------------------------------------------------------|
E|--6--6------6---6--6-----6-6----6--6-------8--8-----8---8--8----8--8-------|


G|---------------------------------------------------------------------------|
D|---------------------------------------------------------------------------|
A|--5---------5--5------5--5-------------------------------------------------|
E|---------------------------------5--5------5------5--5---------------------|


G|---------------------------------------------------------------------------|
D|---------------------------------------------------------------------------|
A|---------------------------------------------------------------------------|
E|--6--6------6---6--6-----6-6---------8--8----8------8------8----6--5-------|



G|---------------------------------------------------------------------------|
D|---------------------------------------------------------------------------|
A|--5--5----5--5----5--5----5--5--------8---8----8-------8----8---8-----8--8-|
E|---------------------------------------------------------------------------|


(2:31)

G|---------------------------------------------------------------------------|
D|---------------------------------------------------------------------------|
A|---------------------------------------------------------------------------|
E|--6--6----6--6----6--6----6--6------8--8----8--8----8--8----8--8-----------|



G|---------------------------------------------------------------------------|
D|---------------------------------------------------------------------------|
A|---------------------------------------------------------------------------|
E|--0--0----0--0----0--0----0--0-------1--1----1--1----1--1----1--1----------|



G|---------------------------------------------------------------------------|
D|---------------------------------------------------------------------------|
A|---------------------------------------------------------------------------|
E|--6--6----6--6----6--6----6--6-------8--8----8--8----8--8----8--8----------|



G|---------------------------------------------------------------------------|
D|-----------------------------------------18--18---18--18-------------------|
A|--5----5----5----5--------6--6----6--6-------------------------------------|
E|---------------------------------------------------------------------------|


Higher Chorus (2:45)

G|---------------------------------------------------------------------------|
D|---------------------------------------------------------------------------|
A|---------------------------------------------------------------------------|
E|--7--7----7--7----7--7----7--7-------9--9----9--9----9--9----9--9----------|



G|---------------------------------------------------------------------------|
D|---------------------------------------------------------------------------|
A|--6--6----6--6----6--6----6--6---------------------------------------------|
E|-------------------------------------6--6----6--6\----18--18----18--18-----|


G|---------------------------------------------------------------------------|
D|---------------------------------------------------------------------------|
A|---------------------------------------------------------------------------|
E|--7--7----7--7----7--7----7--7-------9--9----9--9----9--9----9--9----------|



G|---------------------------------------------------------------------------|
D|---------------------------------------------------------------------------|
A|--6--6----6--6----6--6----6--6---------------------------------------------|
E|----------------------------------2--4----6--6----6--6----6--6----6--6-----|



G|---------------------------------------------------------------------------|
D|---------------------------------------------------------------------------|
A|---------------------------------------------------------------------------|
E|--7--7----7--7----7--7----7--7-------9--9----9--9----9--9------6r----------|


G|---------------------------------------------------------------------------|
D|---------------------------------------------------------------------------|
A|--5--5----5--5----5--5----5--5-------6--6----6--6----6--6------4r----------|
E|---------------------------------------------------------------------------|



G|---------------------------------------------------------------------------|
D|---------------------------------------------------------------------------|
A|---------------------------------------------------------------------------|
E|--7--7----7--7----7--7----7--7-------9--9----9--9----9--9----9--9----------|


G|---------------------------------------------------------------------------|
D|---------------------------------------------------------------------------|
A|--6--6----6--6----6--6----6--6---------------------------------------------|
E|-------------------------------------6--6----6--6----6--6----6--6----------|

Ending (3:12)

G|---------------------------------------------------------------------------|
D|---------------------------------------------------------------------------|
A|------------------6r-------------------------------------------------------|
E|--7r------9r---------------------------------------------------------------|






  R  Let Ring
| /  slide up
| \  slide down
| h  hammer-on
| p  pull-off
| ~  vibrato
| +  harmonic
| x  Mute note
===============================================================================

            
            
Suggest correction
Creating personal tab
Creating personal tab
You can edit any tab online and save it as your Personal.

You can edit, replace or remove any tab part or add personal notes – all changes will be seen only by you.

Personal tabs can be accessed anytime from any device, even offline.
Learn more »
Give kudos to tab author, rate the tab!
1 2 3 4 5
comments
print report bad tab
guest
You may want to rate the tab now too:
select rating
Wanna post a correction for this tab? Suggest correction