Oops, an error
Loading. Please wait.

Feelin Fine Tab

1,592 views 6 this week
no commentswrite comment
1 2 3 4 5
excellent!
x 2
add to favorites
launch autoscroll
font size
0
reset
how to read this tab
guitar tuner
Tab Pro tools
  • play this tab
  • loop segment
  • change instrument
  • show fretboard
  • metronome
Autoscroll
slow
fast
+/-
esc
set tempo
stop
Contributor
Difficulty
intermediate
Name: Feelin' Fine
Artist: Spyro Gyra
CD: In Modern Times (2005)
Tabbed by: Bas Kraakman, The Netherlands


(0.24)

E|------------------------------------------------------------------------------------------------|
B|----------------7--------------------7------------------7-----------7-8~7-8~7-10-7--------7-----|
G|------7--7~--9------7~-----7--7~--9----7~------7--7~--9-----7~--7-9----------------9-7~-7---7h9~|
D|--7h9------------------7h9---------------9-7h9--------------------------------------------------|
A|------------------------------------------------------------------------------------------------|
E|------------------------------------------------------------------------------------------------|


E|-------------------------------------------------------------------------------------------------|
B|----------------7--------------------7-------------------7-----------7-8~7-8~7-10-7--------7-----|
G|------7--7~--9------7~-----7--7~--9----7~-------7--7~--9-----7~--7-9----------------9-7~-7---7h9~|
D|--7h9------------------7h9---------------9--7h9--------------------------------------------------|
A|-------------------------------------------------------------------------------------------------|
E|-------------------------------------------------------------------------------------------------|

  (Sax)                 (guitar)
E|----7------------------------10-10-10-10-------10-12--------10-10-10-10--------10-12/14-12-----|
B|------10--8-10-7-------10-12-------------10-12--------10-12--------------10-12-----------------|
G|--7-------------9-7----------------------------------------------------------------------------|
D|-----------------------------------------------------------------------------------------------|
A|-----------------------------------------------------------------------------------------------|
E|-----------------------------------------------------------------------------------------------|

  (Sax)                 (guitar)                          (sax)
E|----7------------------------10-10-10-10-------10-12-------------------------------------------|
B|------10--8-10-7-------10-12-------------10-12-----------?????????????????????????????????-----|
G|--7-------------9-7----------------------------------------------------------------------------|
D|-----------------------------------------------------------------------------------------------|
A|-----------------------------------------------------------------------------------------------|
E|-----------------------------------------------------------------------------------------------|


(1.29)

E|------------------------------------------------------------------------------------------------|
B|----------------7--------------------7------------------7-----------7-8~7-8~7-10-7--------7-----|
G|------7--7~--9------7~-----7--7~--9----7~------7--7~--9-----7~--7-9----------------9-7~-7---7h9~|
D|--7h9------------------7h9---------------9-7h9--------------------------------------------------|
A|------------------------------------------------------------------------------------------------|
E|------------------------------------------------------------------------------------------------|


E|-------------------------------------------------------------------------------------------------|
B|----------------7--------------------7-------------------7-----------7-8~7-8~7-10-7--------7-----|
G|------7--7~--9------7~-----7--7~--9----7~-------7--7~--9-----7~--7-9----------------9-7~-7---7h9~|
D|--7h9------------------7h9---------------9--7h9--------------------------------------------------|
A|-------------------------------------------------------------------------------------------------|
E|-------------------------------------------------------------------------------------------------|

  (Sax)                 (guitar)
E|----7------------------------10-10-10-10-------10-12--------10-10-10-10--------10-12/14-12-----|
B|------10--8-10-7-------10-12-------------10-12--------10-12--------------10-12-----------------|
G|--7-------------9-7----------------------------------------------------------------------------|
D|-----------------------------------------------------------------------------------------------|
A|-----------------------------------------------------------------------------------------------|
E|-----------------------------------------------------------------------------------------------|

  (Sax)                 (guitar)                          (sax)
E|----7------------------------10-10-10-10-------10-12---------10-10-10-10-------10---7----------|
B|------10--8-10-7-------10-12-------------10-12---------10-12-------------12-10--------10-7-----|
G|--7-------------9-7------------------------------------------------------------------------9-7-|
D|-----------------------------------------------------------------------------------------------|
A|-----------------------------------------------------------------------------------------------|
E|-----------------------------------------------------------------------------------------------|


(2.18) Guitar solo

E|-----------------------------------------------------------------------------------------------|
B|--7-7-7-7h8-7-8/10-------------------------------------------------7h8p7----------7-7h8-7-8/10-|
G|----------------------7-9-9/11-7h9----7-----7-----7------------7h9-------9p7-------------------|
D|------------------7h9-------------------7h9---7h9---7h9----7h9---------------9p7---------------|
A|-----------------------------------------------------------------------------------------------|
E|-----------------------------------------------------------------------------------------------|


E|----------------------------------------------------------10-14-14\10-|
B|----------7--------------------------7-8-10/12-10~-10~-10~------------|
G|--7-7-7h9---7h9p7----------------7-9----------------------------------|
D|-------------------7h9----7----9--------------------------------------|
A|-----------------------9----------------------------------------------|
E|----------------------------------------------------------------------|


E|----------------------------------------|
B|---10h12p10-----------------------------|
G|----------9h11p9-7h9p7------------------|
D|-----------------------7h9p7------------|
A|-----------------------------7h9p7-5h7p5|
E|----------------------------------------|


E|----------------------------------------------10-12-14-10h12-------10h12-12^14^12p10-12-10--|
B|----------------7~-10~-7~-10~-7~-10/12--10h12----------------10h12--------------------------|
G|------------7-9-----------------------------------------------------------------------------|
D|----------7---------------------------------------------------------------------------------|
A|--5-5-7/9-----------------------------------------------------------------------------------|
E|--------------------------------------------------------------------------------------------|


(2.50) Guitar+Sax

E|-----10-12-14-12-10-9------------10p9-------------------------------------------------------|
B|--12------------------10/12---12------10-12-----7-------------------------------------------|
G|--------------------------------------------------9p7---7h9p7-------------------------------|
D|------------------------------------------------------9-------------------------------------|
A|--------------------------------------------------------------------------------------------|
E|--------------------------------------------------------------------------------------------|


E|-----10-12-14-12-10-9-------------10-10-9-9h10----------------------------------------------|
B|--12------------------10/12---12------------------10p8p7----7-------------------------------|
G|---------------------------------------------------------9----7h9-7-------------------------|
D|--------------------------------------------------------------------------------------------|
A|--------------------------------------------------------------------------------------------|
E|--------------------------------------------------------------------------------------------|


(3.24)

  (Sax)                 (guitar)
E|----7------------------------10-10-10-10-------10-12--------10-10-10-10--------10-12/14-12--|
B|------10--8-10-7-------10-12-------------10-12--------10-12--------------10-12--------------|
G|--7-------------9-7-------------------------------------------------------------------------|
D|--------------------------------------------------------------------------------------------|
A|--------------------------------------------------------------------------------------------|
E|--------------------------------------------------------------------------------------------|


  (Sax)                 (guitar)
E|----7------------------------10-10-10-10-------10-12--------10-10-10-10--------10-12/14-12--|
B|------10--8-10-7-------10-12-------------10-12--------10-12--------------10-12--------------|
G|--7-------------9-7-------------------------------------------------------------------------|
D|--------------------------------------------------------------------------------------------|
A|--------------------------------------------------------------------------------------------|
E|--------------------------------------------------------------------------------------------|


  (Sax)                 
E|----7-------------------------|
B|------10--8-10-7--------------|
G|--7-------------9-7-----------|  from this point solo your way :)
D|------------------------------|
A|------------------------------|
E|------------------------------|


====================================
=    Symbols used:                 =
====================================
=    / = slide upwards             =
=    \ = slide downwards           =
=    h = hammer on                 =
=    p = pull off                  =
=    ~ = vibrato                   =
====================================

Comment: 
sorry for the weird length of the tab, had to adjust it for this website :)
comments
We did not receive enough feedback on this tab! Please rate:
print report bad tab
1 2 3 4 5
I want to post or [tab]
guest
You may want to rate the tab now too:
select rating
Please do not post tabs as comments. Select "correction" instead!