Oops, an error
Loading. Please wait.

Lovin You Tab

1,163 views 3 this week
no commentswrite comment
1 2 3 4 5
please rate
add to favorites
launch autoscroll
font size
0
reset
how to read this tab
guitar tuner
Autoscroll
slow
fast
+/-
esc
set tempo
stop
Help us to improve Ultimate-Guitar.com Take our survey!
×
Author
Difficulty
intermediate
Lovin' You - Interlude
Chet Catallo / Spyro Gyra
Catching the Sun  1980

Initial Tab Version - 18 June 2011

Standard Tuning


e----------------9--10--9--------------------7--9--7------------------|
B--------10----------------10----------8--------------8---------------|
G-----11-----11---------------------9-----9---------------------------|
D--0-----------------------------0------------------------------------|
A---------------------------------------------------------------------|
E---------------------------------------------------------------------|



e--------------5--7--5------------------3--5--3-----------------------|
B--------7--------------7---------5--------------5--------------------|
G-----6-----6------------------4-----4--------------------------------|
D--0------------------------0-----------------------------------------|
A---------------------------------------------------------------------|
E---------------------------------------------------------------------|



e--------------0--2--0------------------0--2--0-----------------------|
B--------3--------------3---------3--------------3--------------------|
G-----2-----2------------------2-----2--------------------------------|
D---------------------------------------------------------------------|
A--2------------------------1-----------------------------------------|
E---------------------------------------------------------------------|


e--------------------------2------------------------------------------|
B--------------3-----------2------------------------------------------|
G--------4--------4--------3------------------------------------------|
D-----5-----5--------5-----5------------------------------------------|
A--0--------------------0--4------------------------------------------|
E---------------------------------------------------------------------|



e------------------------------------5--3-----------------------------|
B------7--7--5--3--5--5--7--3--3--3--3------7--7--5--3--5-------------|
G------6-----------5--------4-----3--3------6-----------5-------------|
D---7--7-----------5--------4-----2---------7-----------5-------------|
A------5-----------5--------5-----3---------5-----------5-------------|
E------------------5------------------------------------5-------------|


e-----5--8--7--8--10----------------------------------5--5---5---5----|
B--4--4-----------12------6----5----------2--3--5--7-----7---7---5----|
G--------8--7--8--11------7----6----2--4-----------6-----6---6---5----|
D--4--4-----------12------8----8-------------------7-----7-------5----|
A-----------------10-------------------------------5-----5-------5----|
E-----------------------8----8-----------------------------------5--5-|


e--7--5--10--12--14--10------8/9--8--7--------------------------------|
B--5-----12------10----------8/9--8--7--5--------------5--8--7--5-----|
G--5-----11------11----------8/9--8--7--7-----------7--------------7--|
D--5-----12------12---------------------6--------5--------------------|
A--5-----10------10---------------------7--6--7-----------------------|
E-------------------------0-------------------------------------------|


e-----------------------2---------------------2--------2----2---------|
B-----------3-----------2----6----------3--------3----------3---------|
G--------4-----------3--3----7-------2-----2--------2-------2---------|
D-----5-----------5----------5----0-------------------------0---------|
A--0-----------0-------------6----------------------------------------|
E---------------------------------------------------------------------|
Suggest correction
Give kudos to tab author, rate the tab!
1 2 3 4 5
comments
print report bad tab
guest
You may want to rate the tab now too:
select rating
Wanna post a correction for this tab? Suggest correction