Oops, an error
Loading. Please wait.

Always Talkin Never On The Run Bass Tab

96 views 3 this week
no commentswrite comment
1 2 3 4 5
please rate
add to favorites
launch autoscroll
font size
0
reset
guitar tuner
Tab Pro tools
  • play this tab
  • loop segment
  • change instrument
  • show fretboard
  • metronome
×
Best way to learn
"Always Talkin Never On The Run"
Autoscroll
slow
fast
+/-
esc
set tempo
stop
Difficulty
Tuning
intermediate
D A D G B E
g---------------------------------------------------|
d---------------------------------------------------|
a-(14)-(14)-(14)-(14)-(14)-(14)-(14)-(14)-(14)-(14--|
D---------------------------------------------------|

g---------------------------------|
d---------------------------------|
a-(14)-(14)-(14)-(14)-(14)-(14)/0-|
D---------------------------------|

g--------------------------------------------------|
d--------------------------------------------------|
a-2---------2---------2---------2------------------|
D--5(12)/0---5(12)/0---5(12)/0---5(12)/0-4-4444444-|

g---------------------------------------------------|
d---------------------------------------------------|
a-2----------------2----------------2---------------|
D--5(12)/0-355340---5(12)/0-355340---5(12)/0-355340-|

g----------------------------------------------------------------------|
d----------------------------------------------------------------------|
a-2---------------------------------------------------------------020--|
D--5(12)/057-77777774445--555554--4445-555554--4445-555554-4445-245----|

g------------------------------------------------|
d------------------------------------------------|
a--5--0------------------5--0--------------------|
D--------5589558955895589------5-33035-5-33035-5-|

g---------------------------------------------------|
d---------------------------------------------------|
a---------------------------12-0-1-2---------00000--|
D---5-5340-355340-355340-355---------0/(12)/0-------|

g----------------------------------------------------|
d----------------------------------------------------|
a-2-------000000--2-------0000000-2------------------|
D--5(12)/0---------5(12)/0---------5(12)/054-4444444-|

g----------------------------------------------------------------|
d----------------------------------------------------------------|
a-2--------------2--------------2-------------2------------------|
D--5(12)/0355340--5(12)/0355340--5(12)/0355340-5(12)/057-7777777-|

g----------------------------------------------------|
d----------------------------------------------------|
a------------------------------------------------020-|
D-4445--555554-4445--555554-4445--555554-4445-245----|

g---------------------------------------------------------------------|
d---------------------------------------------------------------------|
a--5--0------------------5--0--------------------5--0-----------------|
D--------5589558955895589------5-33035-5-33035-5-----5589558955895589-|

g------------------------------------------------------------------|
d----------------------------35----35----35--95---35--75---35--95--|
a-5--0-------------------35------5-----5-------5--------5--------5-|
D-------5-33035-5-33035-5------------------------------------------|

g-------------------------------------------------|
d-35--95---35--95---35--75---35--95---35--75---35-|
a-------5--------5--------5--------5--------5-----|
D-------------------------------------------------|

g------------------------------------------------------------------|
d------------------------------------------------------------------|
a--------------------5--0-------------------5--0-------------------|
D----5589558955895589-----5-33035-5-33035-5-------5589558955895589-|

g--------------------------------------------------|
d-------------------------------------2---2---42---|
a--5--0---------------------5--0----24-424-424--42-|
D--------5-33035-5-33035-5--------44---------------|

g-------------------------------------------------------------------------|
d-------44444424242-242------------2---2---42-----------------------------|
a-5--0-------------4---4-5--0----24-424-424--42-5--0--------------------5-|
D------------------------------44---------------------5-33035-5-33035-5---|
comments
We did not receive enough feedback on this tab! Please rate:
print report bad tab
1 2 3 4 5
I want to post or [tab]
guest
You may want to rate the tab now too:
select rating
Please do not post tabs as comments. Select "correction" instead!