Oops, an error
Loading. Please wait.

Pulling Mussels From The Shell Bass Tab

version 1
version 1

Whole song

Interactive

7,713 views 21 this week
2 commentsread comments
1 2 3 4 5
accurate
x 5
add to favorites
launch autoscroll
font size
0
reset
guitar tuner
Tab Pro tools
  • play this tab
  • loop segment
  • change instrument
  • show fretboard
  • metronome
Autoscroll
slow
fast
+/-
esc
set tempo
stop
Contributor
Band: Squeeze
Album: Argybargy
Song: Pulling Mussels (From the Shell)

All credit to twitch71986!
...whoever the hell that is...


Verse:
G--------------------7-------------------------------5-10-----------|
D-------------22-2--3-------------------2/5*------3-7-------3*------|
A-----------------35----3-5---532-------------------------3---------|
E-55-533-311-1-------------------53---------------------------------|

Pre-Chorus:
G----------------------------------|
D-2222222233333333--------44444444-|
A-----------------33333333---------|
E----------------------------------|

G--------------------------------------|
D-2222222233333333--------444444444444-|
A-----------------33333333-------------|
E--------------------------------------|

Chorus:
G--------------------------------------------------------------------------------------|
D-------------------------------------------------22-2---------------------------------|
A-----------------------------------------------------55-555-5-------------------------|
E-23-5*--533-311-133-355-533-311-133-355-533-311-1------------66-655-54444444433333333-|

G---------------------------------|
D---------5--5----3--3*-----------|
A-3--3----------------------------|
E------------------------------3*-|

Verse:
G--------------------7-------------------------------5-10-----------|
D-------------22-2--3-------------------2/5*------3-7-------3*------|
A-----------------35----3-5---532-------------------------3---------|
E-55-533-311-1-------------------53---------------------------------|

Pre-Chorus:
G----------------------------------|
D-2222222233333333--------44444444-|
A-----------------33333333---------|
E----------------------------------|

G--------------------------------------|
D-2222222233333333--------444444444444-|
A-----------------33333333-------------|
E--------------------------------------|

Chorus:
G--------------------------------------------------------------------------------------|
D-------------------------------------------------22-2---------------------------------|
A-----------------------------------------------------55-555-5-------------------------|
E-23-5*--533-311-133-355-533-311-133-355-533-311-1------------66-655-54444444433333333-|

G---------------------------------|
D---------5--5----3--3*-----------|
A-3--3----------------------------|
E------------------------------3*-|

Bridge:
G--------------------7-------------------------------5-10-----------|
D-------------22-2--3-------------------2/5*------3-7-------3*------|
A-----------------35----3-5---532-------------------------3---------|
E-55-533-311-1-------------------53---------------------------------|

G----------------------------------|
D-22-2222233-33333--------44444444-|
A-----------------33333333---------|
E----------------------------------|

G--------------------------------------|
D-2222222233333333--------444444444444-|
A-----------------33333333-------------|
E--------------------------------------|

G--------------------------------------------------------------------------------------|
D-------------------------------------------------22-2---------------------------------|
A-----------------------------------------------------55-555-5-------------------------|
E-23-5*--533-311-133-355-533-311-133-355-533-311-1------------66-655-54444444433333333-|

G---------------------------------|
D---------5--5----3--3*-----------|
A-3--3----------------------------|
E------------------------------3*-|

Verse:
G--------------------7-------------------------------5-10------------|
D-------------22-2--3-------------------2/5*------3-7------3*--------|
A-----------------35----3-5---532------------------------3-----------|
E-55-533-311-1-------------------53----------------------------------|

Pre-Chorus:
G----------------------------------|
D-2222222233333333--------44444444-|
A-----------------33333333---------|
E----------------------------------|

G--------------------------------------|
D-2222222233333333--------444444444444-|
A-----------------33333333-------------|
E--------------------------------------|

Chorus:
G--------------------------------------------------------------------------------------|
D-------------------------------------------------22-2---------------------------------|
A-----------------------------------------------------55-555-5-------------------------|
E-23-5*--533-311-133-355-533-311-133-355-533-311-1------------66-655-54444444433333333-|

G-----------------------------------|
D---------5--5----3--3*-------------|
A-3--3------------------------------|
E------------------------------3*---|

Outro:
G----------------------------------------------------------------------------------|
D---------------------------------------------22-2---------------------------------|
A-------------------------------------------------55-555-5-------------------------|
E-55-533-311-133-355-533-311-133-355-533-311-1------------66-655-54444444433333333-|

G-----------------------------------|
D---------5--5----3--3*-------------|
A-3--3------------------------------|
E------------------------------3-5*-|

*NOTE*
/ = slide
* = hold note
This tab viewed best on a horizontal page
comments
print report bad tab
2 comments total.
0 reply
davexsexton wrote on November 2 2013, 01:47 pm

Verse:
G--------------------7---------------------------------10-----------|
D------------------47-------------------------------710-------------|
A-------------77-75-------5---532-------2/10*-----8---------8*------|
E-55-533-311-1----------5--------53-----------------------8---------|

Pre-Chorus:
G----------------------------------|
D-2222222233333333--------44444444-|
A-----------------33333333---------|
E----------------------------------|

G--------------------------------------|
D--------------------------------------|
A-6777777778888888--------899999999999-|
E-----------------78888888-------------|

Chorus:
G--------------------------------------------------------------------------------------|
D--------------------------------------------------------------------------------------|
A-------------------------------------------------77-755-555-5-------------------------|
E-13-5*--533-311-133-355-533-311-133-355-533-311-1------------66-655-54444444433333333-|

G---------------------------------|
D---------------------------------|
A---------10-10---8--8*-----------|
E-8--8-------------------------3*-|

0 reply
finnllywelyn wrote on February 8 2014, 04:52 pm

@davexsexton -- I like your version a little better. Would you mind submitting it as a proper tab? I'd like to add it to my Favorites and have access to it via the iPad app; otherwise, I wouldn't be able to view it unless I'm using a web browser.

I want to post or [tab]
guest
You may want to rate the tab now too:
select rating
Please do not post tabs as comments. Select "correction" instead!