Oops, an error
Loading. Please wait.

Tempted Bass Tab

version 2
version 2

Whole song

2,432 views 21 this week
no commentswrite comment
1 2 3 4 5
please rate
add to favorites
launch autoscroll
font size
0
reset
guitar tuner
Autoscroll
slow
fast
+/-
esc
set tempo
stop
Help us to improve Ultimate-Guitar.com Take our survey!
×
Difficulty
novice
Pretty much the entire song is played with a muted rythym as show on the first line.

G  :----------------|----------------|----------------|----------------|
D  :----------------|----------------|----------------|----------------|
A  :----------------|----------------|----------------|----------------|
E  :7-x-7-x-5-x-5-x-|4-x-4-x-0-x-0-4-|7-x-7-x-5-x-5-x-|4-4-4-2-0-0-0-4-|

G  :----------------|----------------|----------------|----------------|
D  :----------------|----------------|----------------|----------------|
A  :----------------|----------------|8-8-8-8-8-8-8-8-|7-7-7-7-7-7-7-7-|
E  :7-7-7-7-6-6-6-6-|4-4-4-4-4-4-4-4-|----------------|----------------|
    Verse


G  :----------------|----------------|----------------|
D  :----------------|----------------|----------------|
A  :----------------|----------------|------------5---|
E  :7-7-7-7-7-7-7-7-|2-2-2-2-2-2-2-2-|5-5-5-5-5-------|


G  :----------------|----------------|----------------|----------------|
D  :----------------|----------------|----------------|----------------|
A  :----------------|----------------|----------4-5-6-|7-7-7-7-8-8-8-8-|
E  :0-0-0-0-0-0-0-2-|3-3-3-3-3-3-5-6-|7-7-7-7-7-------|----------------|

G  :----------------|----------------|----------------|----------------|
D  :----------------|----------------|----------------|----------------|
A  :9-9-9-9-9-9-9-9-|7-7-7-7-7-7-7-7-|9-9-9-9-8-8-8-8-|7-7-7-7-5-5-5-5-|
E  :----------------|----------------|----------------|----------------|


G  :----------------|----------------|----------------|----------------|
D  :----------------|----------------|----------------|----------------|
A  :----------------|----------------|----------------|----------------|
E  :7-7-7-7-5-5-5-5-|4-4-4-4-0-0-0-4-|7-7-7-7-5-5-5-5-|4-4-4-2-0-0-0-0-|
   (Chorus)


G  :----------------|----------------|----------------|----------------|
D  :----------------|----------------|----------------|----------------|
A  :4-4-4-4-4-4-4-4-|----------------|----------------|----------------|
E  :----------------|2-2-2-2-2-2-2-2-|7-7-7-7-5-5-5-5-|4-4-4-4-0-0-0-4-|

G  :----------------|----------------|----------------|----------------|
D  :----------------|----------------|----------------|----------------|
A  :----------------|----------------|4-4-4-4-4-4-4-4-|----7-7-----7-7-|
E  :7-7-7-7-5-5-5-5-|4-4-4-2-0-0-0-0-|----------------|0-0-----0-0-----|

G  :----------------|
D  :----------------|
A  :----7-7-----7-7-|
E  :0-0-----0-0-----|
Suggest correction new What's this?
You can suggest a correction to this tab. Community and Mods will review your correction and vote to approve or reject it.
comments
We did not receive enough feedback on this tab! Please rate:
print report bad tab
1 2 3 4 5
I want to post or [tab]
guest
You may want to rate the tab now too:
select rating
Please do not post tabs as comments. Select "correction" instead!