Oops, an error
Loading. Please wait.

This Summer Bass Tab

901 views 1 this week
no commentswrite comment
1 2 3 4 5
worth learning
x 1
add to favorites
launch autoscroll
font size
0
reset
guitar tuner
Tab Pro tools
  • play this tab
  • loop segment
  • change instrument
  • show fretboard
  • metronome
Autoscroll
slow
fast
+/-
esc
set tempo
stop
Contributor
This Summer
Squeeze

r    = immediate pause after note (staccato) 
/or\ = slide (up or down)
___  = hold note

Intro
G|----------------|----------------|----------------|----------------|
D|5-----5-3-2-0---|----------------|------5-3-2-0---|----------------|
A|--------------1-|3-----0-3-3-1---|--------------1-|3-----3---3-----|
E|----------------|--------------1-|3-3-------------|--------3-----3-|

Verse 1
G|----------------|----------------|----------------|--------|
D|----------------|----------------|----------------|--------|
A|3-----3---3---1-|3-----3---3---1-|3-----3---3---1-|3-----3-|
E|--------3-------|--------3-------|--------3-------|--------|

G|----------------|----------------|----------------|
D|------3---3-----|----------------|------3---3-----|
A|--------3-------|----------------|--------3-----0-|
E|1-------------3-|5---5---5-3-0---|1---------------|

G|----------------|----------------|
D|----------------|----------------|
A|3-----3---------|3-----3---------|
E|--------3---3---|--------3---3---|

G|----------------|----------------|----------------|--------|
D|----------------|----------------|----------------|--------|
A|3-----3---3---1-|3-----3---3---1-|3-----3---3---1-|3-----3-|
E|--------3-------|--------3-------|--------3-------|--------|
                                                                        
G|----------------|----------------|----------------|----------------|
D|------3---3-----|----------------|------3---3-----|----------------|
A|--------3-------|----------------|--------3-----0-|3-----3---------|
E|1-------------3-|5---5---5-3-0---|1---------------|--------3---3---|

This summer…
G|----------------|
D|----------------|
A|3r--------------|
E|----------------|

Chorus

G|----------------|----------------|----------------|----------------|
D|----------------|----------------|----------------|----------------|
A|--0-3-0-----2---|3-------3-------|--0-3-0-----2---|3-------3-------|
E|1-------3-3-----|----5-3---3-0---|1-------3-3-----|----5-3---3-0---|

G|----------------|----------------|----------------|----------------|
D|--------3-2-0---|----------------|--------3-2-0---|----------------|
A|--------------1-|3-------3-------|--------------1-|3-------3-------|
E|3---3-----------|----------------|3---3-----------|----------------|

G|----------------|----------------|----------------|----------------|
D|----------------|----------------|----------------|----------------|
A|6-6-6-6-6-6-6-6-|5-5-5-5-5-5-5\--|3-----3---3---1-|3-----3---3---1-|
E|----------------|----------------|--------3-------|--------3-------|

Verse 2

G|----------------|----------------|----------------|--------|
D|----------------|----------------|----------------|--------|
A|3-----3---3---1-|3-----3---3---1-|3-----3---3---1-|3-----3-|
E|--------3-------|--------3-------|--------3-------|--------|
                                            
G|----------------|----------------|----------------|----------------|
D|------3---3-----|----------------|------3---3-----|----------------|
A|--------3-------|----------------|--------3-----0-|3-----3---------|
E|1-------------3-|5---5---5-3-0---|1---------------|--------3---3---|

This summer…
G|----------------|
D|----------------|
A|3r--------------|
E|----------------|

Chorus

G|----------------|----------------|----------------|----------------|
D|----------------|----------------|----------------|----------------|
A|--0-3-0-----2---|3-------3-------|--0-3-0-----2---|3-------3-------|
E|1-------3-3-----|----5-3---3-0---|1-------3-3-----|----5-3---3-0---|

G|----------------|----------------|----------------|----------------|
D|--------3-2-0---|----------------|--------3-2-0---|----------------|
A|--------------1-|3-------3-------|--------------1-|3-------3-------|
E|3---3-----------|----------------|3---3-----------|----------------|

G|----------------|----------------|
D|----------------|----------------|
A|6-6-6-6-6-6-6-6-|5-5-5-5-5-5-5\--|
E|----------------|----------------|

Bridge

G|----------------|----------------|----------------|----------------|
D|----------------|----------------|----------------|----------------|
A|----------------|----------------|----------------|3-3-3-3-3-3-3-3-|
E|4-4-4-4-4-4-3-3-|1-1-1-1-1-1-1/--|6-6-6-6-6-6-6-6-|----------------|

G|----------------|----------------|----------------|----------------|
D|----------------|----------------|----------------|----------------|
A|----------------|----------------|----------------|----------------|
E|4-4-4-4-4-4-3-3-|1-1-1-1-1-1-1/--|3-3-3-3-3-3-3-3-|3-3-3-3-3-3-/15\|

Solo

G|----------------|----------------|----------------|--------|
D|----------------|----------------|----------------|--------|
A|3-----3---3---1-|3-----3---3---1-|3-----3---3---1-|3-----3-|
E|--------3-------|--------3-------|--------3-------|--------|
                                                                        
G|----------------|----------------|----------------|----------------|
D|------3---3-----|----------------|------3---3-----|----------------|
A|--------3-------|----------------|--------3-----0-|3-----3---------|
E|1-------------3-|5---5---5-3-0---|1---------------|--------3---3---|

This summer…
G|----------------|
D|----------------|
A|3r--------------|
E|----------------|

Chorus

G|----------------|----------------|----------------|----------------|
D|----------------|----------------|----------------|----------------|
A|--0-3-0-----2---|3-------3-------|--0-3-0-----2---|3-------3-------|
E|1-------3-3-----|----5-3---3-0---|1-------3-3-----|----5-3---3-0---|

G|----------------|----------------|----------------|----------------|
D|--------3-2-0---|----------------|--------3-2-0---|----------------|
A|--------------1-|3-------3-------|--------------1-|3-------3-------|
E|3---3-----------|----5-3---3-0---|3---3-----------|----5-3---3-0---|

G|----------------|----------------|----------------|----------------|
D|--------3-2-0---|----------------|----------------|----------------|
A|--------------1-|3-------3-------|6-6-6-6-6-6-6-6-|5-5-5-5-5-5-5\--|
E|3---3-----------|----------------|----------------|----------------|

Outro

G|----------------|----------------|----------------|----------------|
D|--------3-2-0---|----------------|--------3-2-0---|----------------|
A|--------------1-|3-------3-------|--------------1-|3-------3-------|
E|3---------------|----5-3---3-0---|3---------------|----5-3---3-0---|

G|----------------|----------------|----------------|----
D|--------3-2-0---|----------------|--------3-2-0---|---
A|--------------1-|3-------3-------|--------------3_|--
E|3---------------|----5-3---3-0---|3---------------|-

comments
We did not receive enough feedback on this tab! Please rate:
print report bad tab
1 2 3 4 5
I want to post or [tab]
guest
You may want to rate the tab now too:
select rating
Please do not post tabs as comments. Select "correction" instead!