Oops, an error
Loading. Please wait.

Kick Me When Im High tab

version 2
version 2

Whole song

Interactive

by SR-71
13,560 views 3 this week
5 commentsread comments
1 2 3 4 5
x 5
add to favorites
×
Save as Personal and add changes to this tab that will be seen only by you. Learn more ›
×
You can save this tab as Personal to edit and correct it or add notes. All changes will be seen only by you. Learn more »
launch autoscroll
font size
0
reset
how to read this tab
guitar tuner
edit
Autoscroll
slow
fast
+/-
esc
set tempo
stop
Sr-71 - Kick Me When I'm High

Intro
        PM PM PM PM PM PM                    PM PM PM PM PM PM              
     E  S  S  S  S  S  S   E.  E.  E      E  S  S  S  S  S  S  E.  E.   E   
E||-----------------------------------|------------------------------------|
B||-----------------------------------|------------------------------------|
G||--8--------------------------------|------------------------------------|
D||--8--------------------------------|--10--------------------------------|
A||--6--6--6--6--6--6--6--10---8---6--|--10--------------------6---8---10--|
E||-----------------------------------|---8--8--8--8--8--8--8--------------|


     PM PM PM PM PM PM                                          
  E  S  S  S  S  S  S   E.  E.  E      E.   E.  E   E.  E.  E   
-----------------------------------|---------------------------|
-----------------------------------|---------------------------|
-----------------------------------|---------------------------|
--8--------------------------------|---------------------------|
--8--------------------10---8---6--|--11---10---8--10---8---6--|
--6--6--6--6--6--6--6--------------|---------------------------|


     PM PM PM PM PM PM                    PM PM PM PM PM PM              
  E  S  S  S  S  S  S   E.  E.  E      E  S  S  S  S  S  S  E.  E.   E   
-----------------------------------|------------------------------------|
-----------------------------------|------------------------------------|
--8--------------------------------|------------------------------------|
--8--------------------------------|--10--------------------------------|
--6--6--6--6--6--6--6--10---8---6--|--10--------------------6---8---10--|
-----------------------------------|---8--8--8--8--8--8--8--------------|


     PM PM PM PM PM PM                                          
  E  S  S  S  S  S  S   E.  E.  E      E.   E.  E   E.  E.  E   
-----------------------------------|---------------------------|
-----------------------------------|---------------------------|
-----------------------------------|---------------------------|
--8--------------------------------|---------------------------|
--8--------------------10---8---6--|--11---10---8--10---8---6--|
--6--6--6--6--6--6--6--------------|---------------------------|


1st Verse...
     PM PM PM PM PM PM PM PM PM PM PM PM PM PM  
  E  S  S  S  S  S  S  S  S  S  S  S  S  S  S   
-----------------------------------------------|
-----------------------------------------------|
--8--------------------------------------------|
--8--------------------------------------------|
--6--6--6--6--6--6--6--6--6--6--6--6--6--6--6--|
-----------------------------------------------|


     PM PM PM PM PM PM PM PM PM PM PM PM PM PM  
  E  S  S  S  S  S  S  S  S  S  S  S  S  S  S   
-----------------------------------------------|
-----------------------------------------------|
--5--------------------------------------------|
--5--------------------------------------------|
--3--3--3--3--3--3--3--3--3--3--3--3--3--3--3--|
-----------------------------------------------|


     PM PM PM PM PM PM PM PM PM PM PM PM PM PM  
  E  S  S  S  S  S  S  S  S  S  S  S  S  S  S   
-----------------------------------------------|
-----------------------------------------------|
-----------------------------------------------|
--8--------------------------------------------|
--8--------------------------------------------|
--6--6--6--6--6--6--6--6--6--6--6--6--6--6--6--|


     PM PM PM PM PM PM PM PM PM PM   PM PM PM  
  E  S  S  S  S  S  S  S  S  S  S  S S  S  S   
----------------------------------------------|
----------------------------------------------|
----------------------------------------------|
--6--------------------------------6----------|
--6--------------------------------6----------|
--4--4--4--4--4--4--4--4--4--4--4--4-4--4--4--|


     PM PM PM PM PM PM PM PM PM PM PM PM PM PM  
  E  S  S  S  S  S  S  S  S  S  S  S  S  S  S   
-----------------------------------------------|
-----------------------------------------------|
--8--------------------------------------------|
--8--------------------------------------------|
--6--6--6--6--6--6--6--6--6--6--6--6--6--6--6--|
-----------------------------------------------|


     PM PM PM PM PM PM PM PM PM PM PM PM PM PM  
  E  S  S  S  S  S  S  S  S  S  S  S  S  S  S   
-----------------------------------------------|
-----------------------------------------------|
--5--------------------------------------------|
--5--------------------------------------------|
--3--3--3--3--3--3--3--3--3--3--3--3--3--3--3--|
-----------------------------------------------|


     PM PM PM PM PM PM PM PM PM PM PM PM PM PM  
  E  S  S  S  S  S  S  S  S  S  S  S  S  S  S   
-----------------------------------------------|
-----------------------------------------------|
-----------------------------------------------|
--8--------------------------------------------|
--8--------------------------------------------|
--6--6--6--6--6--6--6--6--6--6--6--6--6--6--6--|

                                               1st Chorus...
     PM PM PM PM PM PM PM PM PM PM   PM PM PM                                 
  E  S  S  S  S  S  S  S  S  S  S  S S  S  S     E  S E  S S S E  S E  S S S  
----------------------------------------------|------------------------------|
----------------------------------------------|------------------------------|
----------------------------------------------|--8--8-8--8-8-8---------------|
--6--------------------------------6----------|--8--8-8--8-8-8-8--8-8--8-8-8-|
--6--------------------------------6----------|--6--6-6--6-6-6-8--8-8--8-8-8-|
--4--4--4--4--4--4--4--4--4--4--4--4-4--4--4--|----------------6--6-6--6-6-6-|


  E  S E  S S S E  S E  S S S    E  S E  S S S E  S E  S S S  
------------------------------|------------------------------|
------------------------------|------------------------------|
--5--5-5--5-5-5---------------|--8--8-8--8-8-8---------------|
--5--5-5--5-5-5-6--6-6--6-6-6-|--8--8-8--8-8-8-8--8-8--8-8-8-|
--3--3-3--3-3-3-6--6-6--6-6-6-|--6--6-6--6-6-6-8--8-8--8-8-8-|
----------------4--4-4--4-4-4-|----------------6--6-6--6-6-6-|


  E  S E  S S S E  S E  S S S    E  S E  S S S E  S E  S S S  
------------------------------|------------------------------|
------------------------------|------------------------------|
--5--5-5--5-5-5---------------|--8--8-8--8-8-8---------------|
--5--5-5--5-5-5-6--6-6--6-6-6-|--8--8-8--8-8-8-8--8-8--8-8-8-|
--3--3-3--3-3-3-6--6-6--6-6-6-|--6--6-6--6-6-6-8--8-8--8-8-8-|
----------------4--4-4--4-4-4-|----------------6--6-6--6-6-6-|


  E  S E  S S S E  S E  S S S    E  S E  S S S E  S E  S S S  
------------------------------|------------------------------|
------------------------------|------------------------------|
--5--5-5--5-5-5---------------|------------------------------|
--5--5-5--5-5-5-6--6-6--6-6-6-|--8--8-8--8-8-8-8--8-8--8-8-8-|
--3--3-3--3-3-3-6--6-6--6-6-6-|--8--8-8--8-8-8-8--8-8--8-8-8-|
----------------4--4-4--4-4-4-|--6--6-6--6-6-6-6--6-6--6-6-6-|

                                 Interlude(Intro)...
                                    PM PM PM PM PM PM              
  E  S E  S S S E  S E  S S S    E  S  S  S  S  S  S   E.  E.  E   
------------------------------|-----------------------------------|
------------------------------|-----------------------------------|
------------------------------|--8--------------------------------|
--6--6-6--6-6-6-6--6-6--6-6-6-|--8--------------------------------|
--6--6-6--6-6-6-6--6-6--6-6-6-|--6--6--6--6--6--6--6--10---8---6--|
--4--4-4--4-4-4-4--4-4--4-4-4-|-----------------------------------|


      PM PM PM PM PM PM                   PM PM PM PM PM PM              
   E  S  S  S  S  S  S  E.  E.   E     E  S  S  S  S  S  S   E.  E.  E   
------------------------------------|-----------------------------------|
------------------------------------|-----------------------------------|
------------------------------------|-----------------------------------|
--10--------------------------------|--8--------------------------------|
--10--------------------6---8---10--|--8--------------------10---8---6--|
---8--8--8--8--8--8--8--------------|--6--6--6--6--6--6--6--------------|

                            2nd Verse
   E.   E.  E   E.  E.  E     E  H.           E   
---------------------------|---------------------|
---------------------------|---------------------|
---------------------------|--8---------------8--|
---------------------------|--8---------------8--|
--11---10---8--10---8---6--|--6---------------6--|
---------------------------|---------------------|


     PM PM PM PM PM PM PM PM PM PM PM PM PM PM  
  E  S  S  S  S  S  S  S  S  S  S  S  S  S  S   
-----------------------------------------------|
-----------------------------------------------|
--5--------------------------------------------|
--5--------------------------------------------|
--3--3--3--3--3--3--3--3--3--3--3--3--3--3--3--|
-----------------------------------------------|


     PM PM PM PM PM PM PM PM PM PM PM PM PM PM  
  E  S  S  S  S  S  S  S  S  S  S  S  S  S  S   
-----------------------------------------------|
-----------------------------------------------|
-----------------------------------------------|
--8--------------------------------------------|
--8--------------------------------------------|
--6--6--6--6--6--6--6--6--6--6--6--6--6--6--6--|


     PM PM PM PM PM PM PM PM PM PM   PM PM PM  
  E  S  S  S  S  S  S  S  S  S  S  S S  S  S   
----------------------------------------------|
----------------------------------------------|
----------------------------------------------|
--6--------------------------------6----------|
--6--------------------------------6----------|
--4--4--4--4--4--4--4--4--4--4--4--4-4--4--4--|


     PM PM PM PM PM PM PM PM PM PM PM PM PM PM  
  E  S  S  S  S  S  S  S  S  S  S  S  S  S  S   
-----------------------------------------------|
-----------------------------------------------|
--8--------------------------------------------|
--8--------------------------------------------|
--6--6--6--6--6--6--6--6--6--6--6--6--6--6--6--|
-----------------------------------------------|


     PM PM PM PM PM PM PM PM PM PM PM PM PM PM  
  E  S  S  S  S  S  S  S  S  S  S  S  S  S  S   
-----------------------------------------------|
-----------------------------------------------|
--5--------------------------------------------|
--5--------------------------------------------|
--3--3--3--3--3--3--3--3--3--3--3--3--3--3--3--|
-----------------------------------------------|


     PM PM PM PM PM PM PM PM PM PM PM PM PM PM  
  E  S  S  S  S  S  S  S  S  S  S  S  S  S  S   
-----------------------------------------------|
-----------------------------------------------|
-----------------------------------------------|
--8--------------------------------------------|
--8--------------------------------------------|
--6--6--6--6--6--6--6--6--6--6--6--6--6--6--6--|


     PM PM PM PM PM PM PM PM PM PM   PM PM PM                      
  E  S  S  S  S  S  S  S  S  S  S  S S  S  S     W                 
----------------------------------------------|-------------------|
----------------------------------------------|-------------------|
----------------------------------------------|-------------------|
--6--------------------------------6----------|--8----------------|
--6--------------------------------6----------|--8----------------|
--4--4--4--4--4--4--4--4--4--4--4--4-4--4--4--|--6----------------|

                    2nd Chorus...
  W                   E  S E  S S S E  S E  S S S  
-------------------|------------------------------|
-------------------|------------------------------|
-------------------|--8--8-8--8-8-8---------------|
--6----------------|--8--8-8--8-8-8-8--8-8--8-8-8-|
--6----------------|--6--6-6--6-6-6-8--8-8--8-8-8-|
--4----------------|----------------6--6-6--6-6-6-|


  E  S E  S S S E  S E  S S S    E  S E  S S S E  S E  S S S  
------------------------------|------------------------------|
------------------------------|------------------------------|
--5--5-5--5-5-5---------------|--8--8-8--8-8-8---------------|
--5--5-5--5-5-5-6--6-6--6-6-6-|--8--8-8--8-8-8-8--8-8--8-8-8-|
--3--3-3--3-3-3-6--6-6--6-6-6-|--6--6-6--6-6-6-8--8-8--8-8-8-|
----------------4--4-4--4-4-4-|----------------6--6-6--6-6-6-|


  E  S E  S S S E  S E  S S S    E  S E  S S S E  S E  S S S  
------------------------------|------------------------------|
------------------------------|------------------------------|
--5--5-5--5-5-5---------------|--8--8-8--8-8-8---------------|
--5--5-5--5-5-5-6--6-6--6-6-6-|--8--8-8--8-8-8-8--8-8--8-8-8-|
--3--3-3--3-3-3-6--6-6--6-6-6-|--6--6-6--6-6-6-8--8-8--8-8-8-|
----------------4--4-4--4-4-4-|----------------6--6-6--6-6-6-|


  E  S E  S S S E  S E  S S S    E  S E  S S S E  S E  S S S  
------------------------------|------------------------------|
------------------------------|------------------------------|
--5--5-5--5-5-5---------------|------------------------------|
--5--5-5--5-5-5-6--6-6--6-6-6-|--8--8-8--8-8-8-8--8-8--8-8-8-|
--3--3-3--3-3-3-6--6-6--6-6-6-|--8--8-8--8-8-8-8--8-8--8-8-8-|
----------------4--4-4--4-4-4-|--6--6-6--6-6-6-6--6-6--6-6-6-|

                                         During the solo...
                                    PM PM PM PM   PM    PM PM PM PM   PM  
  E  S E  S S S E  S E  S S S    E  S  S  S  S  S S  E  S  S  S  S  S S   
------------------------------|------------------------------------------|
------------------------------|------------------------------------------|
------------------------------|--8--------------8------------------------|
--6--6-6--6-6-6-6--6-6--6-6-6-|--8--------------8----8--------------8----|
--6--6-6--6-6-6-6--6-6--6-6-6-|--6--6--6--6--6--6-6--8--------------8----|
--4--4-4--4-4-4-4--4-4--4-4-4-|----------------------6--6--6--6--6--6-6--|


     PM PM PM PM   PM    PM PM PM PM   PM  
  E  S  S  S  S  S S  E  S  S  S  S  S S   
------------------------------------------|
------------------------------------------|
--5--------------5------------------------|
--5--------------5----6--------------6----|
--3--3--3--3--3--3-3--6--------------6----|
----------------------4--4--4--4--4--4-4--|


     PM PM PM PM   PM    PM PM PM PM   PM  
  E  S  S  S  S  S S  E  S  S  S  S  S S   
------------------------------------------|
------------------------------------------|
--8--------------8------------------------|
--8--------------8----8--------------8----|
--6--6--6--6--6--6-6--8--------------8----|
----------------------6--6--6--6--6--6-6--|


     PM PM PM PM   PM    PM PM PM PM   PM                                 
  E  S  S  S  S  S S  E  S  S  S  S  S S     E  S E  S S S E  S E  S S S  
------------------------------------------|------------------------------|
------------------------------------------|------------------------------|
--5--------------5------------------------|--8--8-8--8-8-8---------------|
--5--------------5----6--------------6----|--8--8-8--8-8-8-8--8-8--8-8-8-|
--3--3--3--3--3--3-3--6--------------6----|--6--6-6--6-6-6-8--8-8--8-8-8-|
----------------------4--4--4--4--4--4-4--|----------------6--6-6--6-6-6-|


  E  S E  S S S E  S E  S S S    E  S E  S S S E  S E  S S S  
------------------------------|------------------------------|
------------------------------|------------------------------|
--5--5-5--5-5-5---------------|--8--8-8--8-8-8---------------|
--5--5-5--5-5-5-6--6-6--6-6-6-|--8--8-8--8-8-8-8--8-8--8-8-8-|
--3--3-3--3-3-3-6--6-6--6-6-6-|--6--6-6--6-6-6-8--8-8--8-8-8-|
----------------4--4-4--4-4-4-|----------------6--6-6--6-6-6-|

                               3rd Verse
------------------------------|-------------------|-------------------|
------------------------------|-------------------|-------------------|
--5--5-5--5-5-5---------------|--8----------------|--5----------------|
--5--5-5--5-5-5-6--6-6--6-6-6-|--8----------------|--5----------------|
--3--3-3--3-3-3-6--6-6--6-6-6-|--6----------------|--3----------------|
----------------4--4-4--4-4-4-|-------------------|-------------------|


  W                   W                   W                 
-------------------|-------------------|-------------------|
-------------------|-------------------|-------------------|
-------------------|-------------------|-------------------|
--8----------------|--6----------------|-------------------|
--8----------------|--6----------------|-------------------|
--6----------------|--4----------------|-------------------|

3rd Chorus
  E  S E  S S S E  S E  S S S    E  S E  S S S E  S E  S S S  
------------------------------|------------------------------|
------------------------------|------------------------------|
--8--8-8--8-8-8---------------|--5--5-5--5-5-5---------------|
--8--8-8--8-8-8-8--8-8--8-8-8-|--5--5-5--5-5-5-6--6-6--6-6-6-|
--6--6-6--6-6-6-8--8-8--8-8-8-|--3--3-3--3-3-3-6--6-6--6-6-6-|
----------------6--6-6--6-6-6-|----------------4--4-4--4-4-4-|


  E  S E  S S S E  S E  S S S    E  S E  S S S E  S E  S S S  
------------------------------|------------------------------|
------------------------------|------------------------------|
--8--8-8--8-8-8---------------|--5--5-5--5-5-5---------------|
--8--8-8--8-8-8-8--8-8--8-8-8-|--5--5-5--5-5-5-6--6-6--6-6-6-|
--6--6-6--6-6-6-8--8-8--8-8-8-|--3--3-3--3-3-3-6--6-6--6-6-6-|
----------------6--6-6--6-6-6-|----------------4--4-4--4-4-4-|


  E  S E  S S S E  S E  S S S    E  S E  S S S E  S E  S S S  
------------------------------|------------------------------|
------------------------------|------------------------------|
--8--8-8--8-8-8---------------|--5--5-5--5-5-5---------------|
--8--8-8--8-8-8-8--8-8--8-8-8-|--5--5-5--5-5-5-6--6-6--6-6-6-|
--6--6-6--6-6-6-8--8-8--8-8-8-|--3--3-3--3-3-3-6--6-6--6-6-6-|
----------------6--6-6--6-6-6-|----------------4--4-4--4-4-4-|


  E  S E  S S S E  S E  S S S    E  S E  S S S E  S E  S S S  
------------------------------|------------------------------|
------------------------------|------------------------------|
------------------------------|------------------------------|
--8--8-8--8-8-8-8--8-8--8-8-8-|--6--6-6--6-6-6-6--6-6--6-6-6-|
--8--8-8--8-8-8-8--8-8--8-8-8-|--6--6-6--6-6-6-6--6-6--6-6-6-|
--6--6-6--6-6-6-6--6-6--6-6-6-|--4--4-4--4-4-4-4--4-4--4-4-4-|

Interlude(Intro)...
     PM PM PM PM PM PM                    PM PM PM PM PM PM              
  E  S  S  S  S  S  S   E.  E.  E      E  S  S  S  S  S  S  E.  E.   E   
-----------------------------------|------------------------------------|
-----------------------------------|------------------------------------|
--8--------------------------------|------------------------------------|
--8--------------------------------|--10--------------------------------|
--6--6--6--6--6--6--6--10---8---6--|--10--------------------6---8---10--|
-----------------------------------|---8--8--8--8--8--8--8--------------|


     PM PM PM PM PM PM                                          
  E  S  S  S  S  S  S   E.  E.  E      E.   E.  E   E.  E.  E   
-----------------------------------|---------------------------|
-----------------------------------|---------------------------|
-----------------------------------|---------------------------|
--8--------------------------------|---------------------------|
--8--------------------10---8---6--|--11---10---8--10---8---6--|
--6--6--6--6--6--6--6--------------|---------------------------|


     PM PM PM PM PM PM                    PM PM PM PM PM PM              
  E  S  S  S  S  S  S   E.  E.  E      E  S  S  S  S  S  S  E.  E.   E   
-----------------------------------|------------------------------------|
-----------------------------------|------------------------------------|
--8--------------------------------|------------------------------------|
--8--------------------------------|--10--------------------------------|
--6--6--6--6--6--6--6--10---8---6--|--10--------------------6---8---10--|
-----------------------------------|---8--8--8--8--8--8--8--------------|


     PM PM PM PM PM PM               The Last Chords...                                       
  E  S  S  S  S  S  S   E.  E.  E     W                   W                 
-----------------------------------|-------------------|-------------------|
-----------------------------------|-------------------|-------------------|
-----------------------------------|--5----------------|--6----------------|
--8--------------------------------|--5----------------|--6----------------|
--8--------------------10---8---6--|--3----------------|--4----------------|
--6--6--6--6--6--6--6--------------|-------------------|-------------------|


  W                  
-------------------||
-------------------||
--8----------------||
--8----------------||
--6----------------||
-------------------||
Suggest correction
Creating personal tab
Creating personal tab
You can edit any tab online and save it as your Personal.

You can edit, replace or remove any tab part or add personal notes – all changes will be seen only by you.

Personal tabs can be accessed anytime from any device, even offline.
Learn more »
comments
print report bad tab
5 comments total. Showing first comments.
0 reply
MarshallMonster 30 Sep 05, 2006 06:10 PM

Awsome tab

0 reply
EmajWah 10 Feb 07, 2007 03:42 PM

Whats with people and not knowing what a slide is -.-

0 reply
Sattelight897 10 Jun 03, 2008 08:02 AM

great tab. awesome song. no solo though

guest
Wanna post a correction for this tab? Suggest correction