Oops, an error
Loading. Please wait.

Right Now Tab

version 1
version 1

Whole song

Interactive

by SR-71
87,138 views 48 this week
20 commentsread comments
1 2 3 4 5
x 46
add to favorites
launch autoscroll
font size
0
reset
how to read this tab
guitar tuner
×
Best way to learn
"Right Now"
Autoscroll
slow
fast
+/-
esc
set tempo
stop
Tuning
D# G# C# F# A# D#
  [Intro]
   Guitar 1
D#|------------------------------------------------------------------------------|
A#|------------------------------------------------------------------------------|
F#|-9--------------/13-11--9-----------------/9-11-13----------------------------|
C#|-9--x-x-x-x-x-x-----------11--------------------------------------------------|
G#|-7--x-x-x-x-x-x-/11--9--7-11--x-x-x-x-x-x-/7--9-11----------------------------|
D#|---------------------------9--x-x-x-x-x-x-------------------------------------|

   x2
D#|------------------------------------------------------------------------------|
A#|------------------------------------------------------------------------------|
F#|----------------/13-11--9--14--13--11-13-11--9--------------------------------|
C#|-9----------------------------------------------------------------------------|
G#|-9--x-x-x-x-x-x-/11--9--7--12--11--9--11--9--7--------------------------------|
D#|-7--x-x-x-x-x-x---------------------------------------------------------------|

   Guitar 2: Play these chords along after the first time through
D#|------------------------------------------------------------------------------|
A#|------------------------------------------------------------------------------|
F#|-9----------------------------------------------------------------------------|
C#|-9--------------11---------------9---------------7----------------------------|
G#|-7--------------11---------------9---------------7----------------------------|
D#|-----------------9---------------7---------------5----------------------------|

  [Verse]
  Guitar 1
D#|------------------------------------------------------------------------------|
A#|------------------------------------------------------------------------------|
F#|-9----------------------------------------------------------------------------|
C#|-9--x-x-x-x-x-x-x-x-x-x-x-x-x-x-11--------------------------------------------|
G#|-7--x-x-x-x-x-x-x-x-x-x-x-x-x-x-11-x-x-x-x-x-x-x-x-x-x-x-x-x-x----------------|
D#|--------------------------------9--x-x-x-x-x-x-x-x-x-x-x-x-x-x----------------|

   x2
D#|------------------------------------------------------------------------------|
A#|------------------------------------------------------------------------------|
F#|------------------------------------------------------------------------------|
C#|-9------------------------------7---------------------------------------------|
G#|-9--x-x-x-x-x-x-x-x-x-x-x-x-x-x-7--x-x-x-x-x-x-x-x-x-x-x-x-x-x----------------|
D#|-7--x-x-x-x-x-x-x-x-x-x-x-x-x-x-5--x-x-x-x-x-x-x-x-x-x-x-x-x-x----------------|

   Guitar 2: Again, on the second time through play this along
D#|------------------------------------------------------------------------------|
A#|------------------------------------------------------------------------------|
F#|-7/9--------------------------------------------------------------------------|
C#|-7/9-----------9/11-----------7/9------------6/7------------------------------|
G#|-6/7-----------9/11-----------7/9------------6/7------------------------------|
D#|---------------7/-9-----------5/7------------4/5------------------------------|

  [Chorus]
   Guitar 1 (Rythm not shown)
D#|------------------------------------------------------------------------------|
A#|------------------------------------------------------------------------------|
F#|-9----------------------------------------------------------------------------|
C#|-9--------------9------------------11-------------------7---------------------|
G#|-7--------------9------------------11-------------------7---------------------|
D#|----------------7-------------------9-------------------5---------------------|

   Guitar 2
D#|------------------------------------------------------------------------------|
A#|------------------------------------------------------------------------------|
F#|-9--9-9-x-9-9--11--11-11-x-11-11---13---13-13-x-13-13---14---13--11--9--------|
C#|------------------------------------------------------------------------------|
G#|-7--7-7-x-7-7---9---9--9-x--9--9---11---11-11-x-11-11---12---11---9--7--------|
D#|------------------------------------------------------------------------------|

   Guitar 1: "She may not be miss right, she'll do right now."
D#|------------------------------------------------------------------------------|
A#|------------------------------------------------------------------------------|
F#|------------------------------------------------------------------------------|
C#|-4------------------7---------------------------------------------------------|
G#|-4------------------7---------------------------------------------------------|
D#|-2------------------5---------------------------------------------------------|

   Guitar 2: Play this along (Rythm not shown)
D#|------------------------------------------------------------------------------|
A#|------------------------------------------------------------------------------|
F#|-11----------------14---------------------------------------------------------|
C#|------------------------------------------------------------------------------|
G#|-9-----------------12---------------------------------------------------------|
D#|------------------------------------------------------------------------------|

   Guitar 2: While intro plays through again, play this octave with a choppy rythm
D#|------------------------------------------------------------------------------|
A#|------------------------------------------------------------------------------|
F#|-9----------------------------------------------------------------------------|
C#|------------------------------------------------------------------------------|
G#|-7----------------------------------------------------------------------------|
D#|------------------------------------------------------------------------------|

   "I used to be such a nice boy"
D#|-0---------------0------------------------------------------------------------|
A#|-0---------------1------------------------------------------------------------|
F#|-2---------------2------------------------------------------------------------|
C#|-4---------------2------------------------------------------------------------|
G#|-4---------------0------------------------------------------------------------|
D#|------------------------------------------------------------------------------|

  [Solo] Play with chorus rythms
D#|-4-0-0-5-0-0-7-0-0-9-0-0-12b14r12---------------------------------------------|
A#|----------------------------------12b14r12------------------------------------|
F#|-------------------------------------------12b14r12-9b11r9--------------------|
C#|-----------------------------------------------------------9b10r9-9/11\9/11\9-|
G#|------------------------------------------------------------------------------|
D#|------------------------------------------------------------------------------|

D#|-------------------------------------------------12---------------------------|
A#|-----------------------------9---9h10p9-12-------12---------------------------|
F#|-----------9------------9/11--------------/13-14----/13-14--------------------|
C#|------9/11---------9/11-------------------------------------------------------|
G#|-9/11---------9/11------------------------------------------------------------|
D#|------------------------------------------------------------------------------|

                                                        very fast hammer on part
D#|-1212121212121212121212121212121212h14p12h16-12-14-1212-12h14p12h16-12-14-12--|
A#|-1212121212121212121212121212121212-12-12-12-12-12-1212-12-12-12-12-12-12-12--|
F#|------------------------------------------------------------------------------|
C#|------------------------------------------------------------------------------|
G#|------------------------------------------------------------------------------|
D#|------------------------------------------------------------------------------|

                                                      very fast pull off part
D#|-16b17r16-14---12b14-------14b16r14-12---10b12----14/16\14----12p11p9---------|
A#|---------------------------------------------------------------------12-------|
F#|------------------------------------------------------------------------------|
C#|------------------------------------------------------------------------------|
G#|------------------------------------------------------------------------------|
D#|------------------------------------------------------------------------------|

   The song ends with a weird effect playing these chords..
   i thihnk its a phaser or a flanger, set with real thick sound
D#|-0-----------2-----------0----------------------------------------------------|
A#|-1-----------3-----------0----------------------------------------------------|
F#|-2-----------2-----------1----------------------------------------------------|
C#|-2-----------0-----------2----------------------------------------------------|
G#|-0-----------------------2----------------------------------------------------|
D#|-------------------------0----------------------------------------------------|


************************************

| x  Dead note
| h  Hammer-on
| p  Pull-off
| r  Release
| b  Bend
| /  Slide up
| \  Slide down

************************************
Suggest correction
comments
print report bad tab
20 comments total. Showing first comments.
0 reply
oggie 10 Jan 26, 2002 07:00 PM

this tab is perfect
great job man

0 reply
sundance-kid 0 Feb 05, 2002 07:00 PM

excellent job!

0 reply
mARK HopPus 35 Feb 15, 2002 07:00 PM

Well met!

guest
You may want to rate the tab now too:
select rating
Wanna post a correction for this tab? Suggest correction