Oops, an error
Loading. Please wait.

Asquerotopic Bass

54 views 1 this week
no commentswrite comment
1 2 3 4 5
3 more votes to show rating
add to favorites
×
Save as Personal and add changes to this tab that will be seen only by you. Learn more ›
×
You can save this tab as Personal to edit and correct it or add notes. All changes will be seen only by you. Learn more »
save as personal
new!
launch autoscroll
font size
0
reset
guitar tuner
Autoscroll
slow
fast
+/-
esc
set tempo
stop
Intro:

G|----------------|
D|----------------|
A|----------------|
E|----5h7---5h7---|


Esto va después del intro

G|-----------------------------------------|
D|-----------------------------------------|
A|--------------9-9-9-9-8-8-8-8-7-7-7-7----|  4X
E|-----7-7-7-7-----------------------------|


G|-----------------------------------------|
D|-------------9-9-9-9-8-8-8-8-7-7-7-7-----|
A|-----7-7-7-7-----------------------------|  2X
E|-----------------------------------------|


G|-----------------------------------------|
D|-----------------------------------------|
A|--------------9-9-9-9-8-8-8-8-7-7-7-7----|  2X
E|-----7-7-7-7-----------------------------|


G|-----------------------------------------|
D|-----------------------------------------|
A|-----------------------------------------|  2X
E|----5-5-5-5-7--------5-5-5-5-7-----------|


Esta parte va cuando esta el bajo solo con la batería

G|-----------------------------------------|
D|-----------------------------------------|
A|--------------9-9-9-9-8-8-8-8-7-7-7-7----|  6X
E|-----7-7-7-7-----------------------------|


G|-----------------------------------------|
D|-------------9-9-9-9-8-8-8-8-7-7-7-7-----|
A|-----7-7-7-7-----------------------------|  2X
E|-----------------------------------------|


G|-----------------------------------------|
D|-----------------------------------------|
A|--------------9-9-9-9-8-8-8-8-7-7-7-7----|  2X
E|-----7-7-7-7-----------------------------|


G|-----------------------------------------|
D|-----------------------------------------|
A|-----------------------------------------|  2X
E|----5-5-5-5-7--------5-5-5-5-7-----------|


Esta es la parte rapida

G|-----------------------------------------|
D|-----------------------------------------|
A|--------------9-9-9-9-8-8-8-8-7-7-7-7----|  4X
E|-----7-7-7-7-----------------------------|


G|-----------------------------------------|
D|-------------9-9-9-9-8-8-8-8-7-7-7-7-----|
A|-----7-7-7-7-----------------------------|  2X
E|-----------------------------------------|


G|-----------------------------------------|
D|-----------------------------------------|
A|--------------9-9-9-9-8-8-8-8-7-7-7-7----|  2X
E|-----7-7-7-7-----------------------------|


G|-----------------------------------------|
D|-----------------------------------------|
A|-----------------------------------------|  2X
E|----5-5-5-5-7--------5-5-5-5-7-----------|


ahi esta esta tabs ojala q les guste y rife chingon nada mas
metanle algo de su estilo para q rife chingon va ahi les dejo mi correo
chivo_fer@ dudas o aclaraciones
Suggest correction
Give kudos to tab author, rate the tab!
1 2 3 4 5
comments
print report bad tab
guest
Wanna post a correction for this tab? Suggest correction