Oops, an error
Loading. Please wait.

Asquerotopic Tab

74 views 1 this week
no commentswrite comment
1 2 3 4 5
3 more votes to show rating
add to favorites
launch autoscroll
font size
0
reset
how to read this tab
guitar tuner
×
Best way to learn
"Asquerotopic"
Autoscroll
slow
fast
+/-
esc
set tempo
stop
Esta rola me recuerda mucho mis momentos de persecución,
la verdad esta muy chida, espero les guste...

   ~ = Trémolo
   / = Slide
   ^,b = Bend
   h = Hammer on
   p = pull off
   x = notas muertas
   P.. = palm mute
   *///* = slide con plumilla (deslizándola por las cuerdas)
   * = rasgueo rápido con la plumilla


Intro: guitarra 1
e|----------------------------------------------------------------|
B|----------------------------------------------------------------|
G|----------------------------------------------------------------|
D|----------------------------------------------------------------|
A|--12*////////////////////////////////////////////3--------------|
E|----------------------------------------------------------------|

Verso: X4
e|----------------------------------------------------------------|
B|----------------------------------------------------------------|
G|----------------------------------------------------------------|
D|------555-444-333-----------------------------------------------|
A|--333-----------------------------------------------------------|
E|----------------------------------------------------------------|

e|----------------------------------------------------------------|
B|----------------------------------------------------------------|
G|------555-444-333-----------------------------------------------|
D|--333-----------------------------------------------------------|
A|----------------------------------------------------------------|
E|----------------------------------------------------------------


e|---5~--5~---7~---5~---5~----------------------------------------|
B|---5~--5~---7~---5~---5~----------------------------------------|
G|---5~--5~---7~---5~---5~----------------------------------------|
D|----------------------------------------------------------------|
A|----------------------------------------------------------------|
E|----------------------------------------------------------------|


Coro: guitarra 1 y 2

e|----------------------------------------------------------------|
B|----------------------------------------------------------------|
G|----------------------------------------------------------------|
D|---------------17------------------15------------------17-------|
A|151515--171717-15---151515--171717-13---151515--171717-15-------|
E|131313--151515------131313--151515------131313--151515----------|

e|----------------------------------------------------------------|
B|----------------------------------------------------------------|
G|----------------------------------------------------------------|
D|---------------15~----------------------------------------------|
A|151515--171717-13~----------------------------------------------|
E|131313--151515--------------------------------------------------|


Verso 2: X4
e|----------------------------------------------------------------|
B|----------------------------------------------------------------|
G|----------------------------------------------------------------|
D|-------555--444--333--------------------------------------------|
A|--333-----------------------------------------------------------|
E|----------------------------------------------------------------|
P  ...  ... ...  ...

Guitarra 2                                     cuidado santo!
e|------5---5-----------5---5-----------7---7-----------5---5-----|
B|----5-------5-------5-------5-------7-------7-------5-------5---|
G|--5-----------5---5-----------5---7-----------7---5-----------5-|
D|----------------------------------------------------------------|
A|----------------------------------------------------------------|
E|----------------------------------------------------------------|


Coro x 1

Solo:                                                   x  4
e|----------------------------------------------------------------|
B|----------------------------------------------------------------|
G|----------------------------------------------------------------|
D|----------------------------------------------------------------|
A|--10101010-171717-161616-151515--10101010-171717-161616-151515--|
E|--8-8-8-8--151515-141414-131313--8-8-8-8--151515-141414-131313--|


e|----------------------------------------------------------------|
B|----------------------------------------------------------------|
G|----------------------------------------------------------------|
D|--10101010-171717-161616-151515--10101010-171717-161616-151515--|
A|--8-8-8-8--151515-141414-131313--8-8-8-8--151515-141414-131313--|
E|----------------------------------------------------------------|


e|----------------------------------------------------------------|
B|----------------------------------------------------------------|
G|----------------------------------------------------------------|
D|----------------------------------------------------------------|
A|--10101010-171717-161616-151515--10101010-171717-161616-151515--|
E|--8-8-8-8--151515-141414-131313--8-8-8-8--151515-141414-131313--|


Coro: guitarra 1 y 2

e|----------------------------------------------------------------|
B|----------------------------------------------------------------|
G|----------------------------------------------------------------|
D|---------------17------------------15------------------17-------|
A|151515--171717-15---151515--171717-13---151515--171717-15-------|
E|131313--151515------131313--151515------131313--151515----------|

e|------------------------0~--------------------------------------|
B|------------------------0~--------------------------------------|
G|------------------------0~--------------------------------------|
D|---------------15~------2~--------------------------------------|
A|151515--171717-13~------2~--------------------------------------|
E|131313--151515----------0~--------------------------------------|


cualquier duda les dejo mi correo
atg_gd86@

surf!!!!!!!!!
Suggest correction
Give kudos to tab author, rate the tab!
1 2 3 4 5
comments
print report bad tab
guest
You may want to rate the tab now too:
select rating
Wanna post a correction for this tab? Suggest correction