Oops, an error
Loading. Please wait.

Ella Tab

310 views 9 this week
no commentswrite comment
1 2 3 4 5
1 last vote to show rating
add to favorites
launch autoscroll
font size
0
reset
how to read this tab
guitar tuner
×
Best way to learn
"Ella"
Autoscroll
slow
fast
+/-
esc
set tempo
stop
Muy buena rola, que la disfruten

        Bm    Em      Bm                A      G         Bm
e --2-0-2---0------2-0-2---0----5/7---7-5----5-3--5--3---2-----7-
B-------3-----0--------3----------------5------3--3--3----3----7-
G-------4--------------4----------------6------4--4--4-----4---7-

eso va dos veces. luego cambia

               D                   Bm
e-------------5---5------5--------5-------------------------
B------------7---7---5h7------5h7--7-5-5h7--5---5--5/7------
G---4-6-7---7---7-----------------------------7-------------

e-----5---5------5--------5---------
B----7---7---5h7------5h7--7-5-5h7--
G---7---7---------------------------

    G                   F#m
e--------------------------2-------9-
B---3---5-5/7--7-5-5--3-----2-----10-
G--4-------------------------2----11-
D-5------------------------------

e--------------------------------
B---3--3-5-5/7--7-5-5--3-2-3h5-2-
G--4-----------------------------
D-5------------------------------

Se repite todo y luego el final

      Bm
e---2--2--2-----7-
B----3--3--3----7-
G-----4--4--4---7-
Suggest correction
Give kudos to tab author, rate the tab!
1 2 3 4 5
comments
print report bad tab
guest
You may want to rate the tab now too:
select rating
Wanna post a correction for this tab? Suggest correction