Oops, an error
Loading. Please wait.

Fuera Ropa Bass Tab

495 views 6 this week
no commentswrite comment
1 2 3 4 5
2 more votes to show rating
add to favorites
launch autoscroll
font size
0
reset
guitar tuner
×
Best way to learn
"Fuera Ropa"
Autoscroll
slow
fast
+/-
esc
set tempo
stop
|-------------------|
|-------------------|
|------5-5-5-5------|
|--3-3---------3----|

|-------------------|----------|----------|----------|
|-------------------|----------|----------|----------|
|-------------------|----------|-555-0345-|----------|
|-034555-0345-------|-555-0345-|----------|-555-0345-|

|------------------------------------|
|------------------------------------|
|-9-99-0-3-9-5-55-0-3-5----5-5-5-5---|
|----------------------3-3--------3--|

|---------------------------------------------------------|
|---------------------------------------------------------|
|-----------------------------034555-034555---------------|
|-034555-034555-034555-034555---------------034555-034555-|

|------------------------------------|
|------------------------------------|
|-9-99-0-3-9-5-55-0-3-5----5-5-5-5---|
|----------------------3-3--------3--|

1:33
|-------------------|--------------------|--------------|
|-------------------|--------------------|--------------|
|-------------------|--------------------|-555-0345-----|
|-034555-0345--10/3-|-555-0345-3/10-3/10-|-----------10/3|

eso es todo nada mas agarren el ritmo
dudas a diegoavaldezs@
Suggest correction
Give kudos to tab author, rate the tab!
1 2 3 4 5
comments
print report bad tab
guest
You may want to rate the tab now too:
select rating
Wanna post a correction for this tab? Suggest correction