Oops, an error
Loading. Please wait.

Fuera Ropa Tab

version 1
version 1

Whole song

244 views 1 this week
no commentswrite comment
1 2 3 4 5
3 more votes to show rating
add to favorites
launch autoscroll
font size
0
reset
how to read this tab
guitar tuner
×
Best way to learn
"Fuera Ropa"
Autoscroll
slow
fast
+/-
esc
set tempo
stop
Fuera Ropa
El Sr. Bikini
Surf Extremo


e |----------------|
B |----------------|
G |----------------| ¡FUERA ROPA!
D |-2-2-5-5-5-5-2--|
A |-0-0-3-3-3-3-0--|
E |----------------|

e |-----------------------|
B |-----------------------|
G |-----------------------| ¡Ahá!
D |-----------------------|
A |-----------------------|
E |-0-3-4-5-5-5-0-0-3-4-5-|

e |-----------------|
B |-----------------|
G |-----------------| ¡Uh!
D |-----------------|
A |-----------------|
E |-5-5-5-0-0-3-4-5-|

e |-----------------|
B |-----------------|
G |-----------------| ¡Ahá!
D |-----------------|
A |-5-5-5-0-0-3-4-5-|
E |-----------------|

e |-----------------|
B |-----------------|
G |-----------------| ¡Uh!
D |-----------------|
A |-----------------|
E |-5-5-5-0-0-3-4-5-|

e |-------------------------------------------|
B |-------------------------------------------|
G |-------------------------------------------|
D |-2-2-2-----0-2-0-0-0---------2-2-5-5-5-5-2-|
A |-------2-2-----------0-0-3-5-0-0-3-3-3-3-0-|
E |-------------------------------------------|

e |-----------------|
B |-----------------|
G |-----------------|
D |-----------------| X 4
A |-----------------|
E |-0-3-4-5-5-5-----|

e |-----------------|
B |-----------------|
G |-----------------|
D |-----------------| X 2
A |-0-3-4-5-5-5-----|
E |-----------------|

e |-----------------------------------------------------------------------------|
B |-----------------------------------------------------------------------------|
G |-----------------------------------------------------------------------------|
D |-------------------------------------------------------------2-2-5-5-5-5-2---|
A |---0-5-3-0-0-0---------------0-3-5-7-7-7--0-5-7-5-5-5--0-3-5-0-0-3-3-3-3-0---|
E |----------------0-3-4-5-5-5--------------------------------------------------|
Suggest correction
Give kudos to tab author, rate the tab!
1 2 3 4 5
comments
print report bad tab
guest
You may want to rate the tab now too:
select rating
Wanna post a correction for this tab? Suggest correction