Oops, an error
Loading. Please wait.

Fuera Ropa Tab

version 2
version 2

Whole song

142 views 1 this week
no commentswrite comment
1 2 3 4 5
3 more votes to show rating
add to favorites
×
Save as Personal and add changes to this tab that will be seen only by you. Learn more ›
×
You can save this tab as Personal to edit and correct it or add notes. All changes will be seen only by you. Learn more »
save as personal
new!
launch autoscroll
font size
0
reset
how to read this tab
guitar tuner
Autoscroll
slow
fast
+/-
esc
set tempo
stop
Sr Bikini

Fuera ropa


E/----5-5---------5-------------------
a --------3-3-3-3---------------------
d ------------------------------------
g ------------------------------------
b ------------------------------------
e\------------------------------------

fuera ropa !!!!

E/----0-3-4-5-5-5-0-3-4-5------------- * 2
a ------------------------------------
d ------------------------------------
g ------------------------------------
b ------------------------------------
e\------------------------------------

1				2
aha!............................uhh!


E/------------------------------------
a ----0-3-4-5-5-5-0-3-4-5-------------
d ------------------------------------
g ------------------------------------
b ------------------------------------
e\------------------------------------


E/---0-3-4-5-5-5-0-3-4-5--------------
a ------------------------------------
d ------------------------------------
g ------------------------------------
b ------------------------------------
e\------------------------------------


E/----------------------------5-5---------5-----------
a ----7-7-7-3-5-7-5-5-5-0-3-5-----3-3-3-3-------------
d ----------------------------------------------------
g ----------------------------------------------------
b ----------------------------------------------------
e\----------------------------------------------------


rapido sin pausas en A

E/----0-3-4-5-5-5-0-3-4-5------------- * 4
a ------------------------------------
d ------------------------------------
g ------------------------------------
b ------------------------------------
e\------------------------------------


E/------------------------------------
a ----0-3-4-5-5-5-0-3-4-5------------- * 2
d ------------------------------------
g ------------------------------------
b ------------------------------------
e\------------------------------------


E/----------------------------------5-5-------5-------
a ----0-3-5-7-7-7-3-5-7-5-5-5-0-3-5-----3-3-3---------
d ----------------------------------------------------
g ----------------------------------------------------
b ----------------------------------------------------
e\----------------------------------------------------


asi es basicamente


y termina con un acorde el cual no se cual es parece Am

Güeno criticas a mi mail, aplauso para la segunda y si no va asi
pues diganme..
Suggest correction
Give kudos to tab author, rate the tab!
1 2 3 4 5
comments
print report bad tab
guest
Wanna post a correction for this tab? Suggest correction