Oops, an error
Loading. Please wait.

Jewish Princess Tab

45 views 1 this week
no commentswrite comment
1 2 3 4 5
3 more votes to show rating
add to favorites
launch autoscroll
font size
0
reset
how to read this tab
guitar tuner
Autoscroll
slow
fast
+/-
esc
set tempo
stop
Help us to improve Ultimate-Guitar.com Take our survey!
×
que pedo, estas es mi segunda tab que envio, gente surfera esta
rola esta min muena
casi nadie la topa pero desiidi sacarla por si algun
valedor la quiere esta segun yo 100% correcta nomas sigan mis
instrucciones y asi que no son muchas son una mamada pero pss ...
hay veanle ustedes cualquier cosa les dejo mi correo
emo_ny265487@ NO SOY EMO

*( >>> ) ---> eso lo puse para que sepan que esa parte se toca
             rapido

Intro.
    A  G           C
e||-5--3---------3-3-3--------8---7------------------||
B||-5--3---------5-5-5--------8---7------------------||
G||-6--4---------5-5-5--------9---8------------------||
D||-7--5---------5-5-5-------10---9------------------||
A||-7--5---------3-3-3-------10---9------------------||
E||-5--3---------3-3-3--------8---7------------------||

lo que le sigue del intro.

e||------------------------------------------------------------||
B||------------------------------------------------------------||
G||-9-9-9-9-9>>>-7----------6----------------------------------||
D||---------------9-7-9-7-9----0-4/5-7-7-7-5-0-4/5-7-7-7-5-0---||
A||------------------------------------------------------------||
E||------------------------------------------------------------||

e||------------------------------------------------------------||
B||------------------------------------------------------------||
G||-9-9-9-9-9>>>-7----------6----------------------------------||
D||---------------9-7-9-7-9----0-4/5-7-7-7-5-0-4/5-7-----------||
A||------------------------------------------------------------||
E||------------------------------------------------------------||

e||---------------------------||
B||---------------------------||
G||-6/7-6---------5-5-5-5-----||
D||------9-7--7-5-------------||
A||---------9-----------------||
E||---------------------------||

e||------------------------------------------------------------||
B||------------------------------------------------------------||
G||------------------------------------------------------------||
D||------------------------------------------------------------||
A||-7-7-7-7-7>>>-5-----------4---------------------------------||
E||----------------7-5-7-5-7---0-3/4-5-5-5-3-0-3/4-5-5-5-3-0---||

e||------------------------------------------------------------||
B||------------------------------------------------------------||
G||------------------------------------------------------------||
D||------------------------------------------------------------||
A||-7-7-7-7-7>>>-5-----------4---------------------------------||
E||----------------7-5-7-5-7---0-3/4-5-5-5-3-0-3/4-5-----------||

e||--------------------------8---7----||
B||--------------------------8---7----||
G||-6/7-6---------5-5-5-5----9---8----||
D||------9-7--7-5-----------10---9----||
A||---------9---------------10---9----||
E||--------------------------8---7----||

esto que sigue todo es con Palm Mute

e||------------------------------------------------------------||
B||------------------------------------------------------------||
G||-9-9-9-9-9>>>-7----------6----------------------------------||
D||---------------9-7-9-7-9----0-4/5-7-7-7-5-0-4/5-7-7-7-5-0---||
A||------------------------------------------------------------||
E||------------------------------------------------------------||

e||------------------------------------------------------------||
B||------------------------------------------------------------||
G||-9-9-9-9-9>>>-7----------6----------------------------------||
D||---------------9-7-9-7-9----0-4/5-7-7-7-5-0-4/5-7-----------||
A||------------------------------------------------------------||
E||------------------------------------------------------------||

aqui ya es normal otra ves

e||--------------------------8---7----||
B||--------------------------8---7----||
G||-6/7-6---------5-5-5-5----9---8----||
D||------9-7--7-5-----------10---9----||
A||---------9---------------10---9----||
E||--------------------------8---7----||

e||-8---7-||
B||-8---7-||
G||-9---8-|| (se queda haciendo esto hasta el final)
D||10---9-||
A||10---9-||
E||-8---7-||


( 1:14 min) (entra otra guitarra haciendo esto hasta el final)

e||-999999999-88888888888-999999999-11-11-11-11-9999-888888----||
B||------------------------------------------------------------||
G||------------------------------------------------------------||
D||------------------------------------------------------------||
A||------------------------------------------------------------||
E||------------------------------------------------------------||
Suggest correction
Give kudos to tab author, rate the tab!
1 2 3 4 5
comments
print report bad tab
guest
You may want to rate the tab now too:
select rating
Wanna post a correction for this tab? Suggest correction