Oops, an error
Loading. Please wait.

La Arena Tab

62 views 3 this week
no commentswrite comment
1 2 3 4 5
3 more votes to show rating
add to favorites
×
Save as Personal and add changes to this tab that will be seen only by you. Learn more ›
×
You can save this tab as Personal to edit and correct it or add notes. All changes will be seen only by you. Learn more »
save as personal
new!
launch autoscroll
font size
0
reset
how to read this tab
guitar tuner
Autoscroll
slow
fast
+/-
esc
set tempo
stop
Surf Extremo


   ~ = Trémolo
   / = Slide
   ^ = Bend
   h = Hammer on
   p = Pull off
   > = Rasgueo rápido con la plumilla (desconozco nombre técnico)

    A
e |---5-5---5-5---5-5--5--|
B |---5-5---5-5---5-5--5--|
G |---6-6---6-6---6-6--6--| Sonido apagado
D |---7-7---7-7---7-7--7--|
A |---7-7---7-7---7-7--7--|
E |-5-----5-----5---------|

    A
e |-----5-9-7-----------------|
B |---5-------10-9-7----7-----|
G |-6^---------------9~---9~--|
D |---------------------------|
A |---------------------------|
E |---------------------------|

    A
e |-----5-9-7-----------------|
B |---5-------10-9-7----7-----|
G |-6^---------------9~---9~--|
D |---------------------------|
A |---------------------------|
E |---------------------------|

    A
e |-----5-9-7-----------------|
B |---5-------10-9-7----7-----|
G |-6^---------------9~---9~--|
D |---------------------------|
A |---------------------------|
E |---------------------------|

    A
e |-----5-9-7-----------------|
B |---5-------10-9-7----7-----|
G |-6^---------------9~---9~--|
D |---------------------------|
A |---------------------------|
E |---------------------------|

e |-5---------8-7-5---------8-7-5-----------|
B |-6-6-----6-------6-----6-------6--5-6-5--|
G |-7---7-9-----------7-9------------6---6--|
D |-7--------------------------------7---7--|
A |----------------------------------7---7--|
E |-----------------------------------------|

e |-5---------8-7-5---------8-7-5-----------|
B |-6-6-----6-------6-----6-------6---7-7---|
G |-7---7-9-----------7-9-----------7-7-7---|
D |-7---------------------------------7-7---|
A |-----------------------------------------|
E |-----------------------------------------|

e |-----------5-7-5------7-5------|
B |-----7-6-6-------5--------5----|
G |-7-7---7-----------6--------6--|
D |-7-----7-----------------------|
A |-5-----------------------------|
E |-------------------------------|


e |-----------5-7-5--------5--|
B |-----7-6-6-------5----7-7--|
G |-7-7---7-----------6--7-7--|
D |-7-----7--------------7-7--|
A |-5-------------------------|
E |---------------------------|

    A
e |-----5-9-7-----------------|
B |---5-------10-9-7----7-----|
G |-6^---------------9~---9~--|
D |---------------------------|
A |---------------------------|
E |---------------------------|

    A
e |-----5-9-7-----------------|
B |---5-------10-9-7----7-----|
G |-6^---------------9~---9~--|
D |---------------------------|
A |---------------------------|
E |---------------------------|

    A
e |-----5-9-7-----------------|
B |---5-------10-9-7----7-----|
G |-6^---------------9~---9~--|
D |---------------------------|
A |---------------------------|
E |---------------------------|

    A
e |-----5-9-7-----------------|
B |---5-------10-9-7----7-----|
G |-6^---------------9~---9~--|
D |---------------------------|
A |---------------------------|
E |---------------------------|

e |-5---------8-7-5---------8-7-5-----------|
B |-6-6-----6-------6-----6-------6--5-6-5--|
G |-7---7-9-----------7-9------------6---6--|
D |-7--------------------------------7---7--|
A |----------------------------------7---7--|
E |-----------------------------------------|

e |-5---------8-7-5---------8-7-5-----------|
B |-6-6-----6-------6-----6-------6---7-7---|
G |-7---7-9-----------7-9-----------7-7-7---|
D |-7---------------------------------7-7---|
A |-----------------------------------------|
E |-----------------------------------------|

e |-----------5-7-5------7-5------|
B |-----7-6-6-------5--------5----|
G |-7-7---7-----------6--------6--|
D |-7-----7-----------------------|
A |-5-----------------------------|
E |-------------------------------|


e |-----------5-7-5-------7-5------7-5------7-5------7---|
B |-----7-6-6-------5---------5--------5--------5----5---|
G |-7-7---7-----------6---------6--------6--------6--6---|
D |-7-----7----------------------------------------------|FIN
A |-5----------------------------------------------------|
E |------------------------------------------------------|
Suggest correction
Give kudos to tab author, rate the tab!
1 2 3 4 5
comments
print report bad tab
guest
Wanna post a correction for this tab? Suggest correction