Oops, an error
Loading. Please wait.

Luahu Bass

47 views 1 this week
no commentswrite comment
1 2 3 4 5
3 more votes to show rating
add to favorites
launch autoscroll
font size
0
reset
guitar tuner
×
Best way to learn
"Luahu"
Autoscroll
slow
fast
+/-
esc
set tempo
stop
     Intro:

G  ------------------------------------------------------------
D  ------------------------------------------------------------
A  ------------------------------------------------------------ (x2)
E  --0--0-0--3--3-3-5--5/ 6--5-6-5~ ---------------------------

G  ------------------------------------------------------------
D  ------------------------------------------------------------
A  --0--0-0--3--3-3-5--5/ 6--5-6-5~ ---------------------------
E  ------------------------------------------------------------

G  ------------------------------------------------------------
D  ------------------------------------------------------------
A  ------------------------------------------------------------
E  --0--0-0--3--3-3-5--5/ 6--5-6-5~ ---------------------------

G  ------------------------------------------------------------
D  ------------------------------------------------------------
A  ------------------------------------------------------------
E  --7~ --7-6-5~ --5-3-0~  ------------------------------------

       Riff 1
G  ------------------------------------------------------------
D  ------------------------------------------------------------
A  ------------------------------------------------------------  (x4)
E  --0--0-0--3--3-3-5--5/ 6--5-6-5~ ---------------------------

      Riff 2
G  ------------------------------------------------------------
D  ------------------------------------------------------------
A  --0--0-0--3--3-3-5--5/ 6--5-6-5~ ---------------------------  (x2)
E  ------------------------------------------------------------

G  ------------------------------------------------------------
D  ------------------------------------------------------------
A  ------------------------------------------------------------  (x2)
E  --0--0-0--3--3-3-5--5/ 6--5-6-5~ ---------------------------

      Riff 3
G  ------------------------------------------------------------
D  ------------------------------------------------------------
A  ------------------------------------------------------------
E  --7~ --7-6-5~ --5-3-0~  ------------------------------------


~ Vibrato: Dejar vibrar la cuerda
/   Slide up: arrastrar de grave a agudo


esTa eS uNa vueLta compLeta, y puÉs  cHekeNsen ónde va kada riff, ¿saLe?...
Suggest correction
Give kudos to tab author, rate the tab!
1 2 3 4 5
comments
print report bad tab
guest
You may want to rate the tab now too:
select rating
Wanna post a correction for this tab? Suggest correction