Oops, an error
Loading. Please wait.

Luahu Tab

23 views 1 this week
no commentswrite comment
1 2 3 4 5
3 more votes to show rating
add to favorites
launch autoscroll
font size
0
reset
how to read this tab
guitar tuner
Autoscroll
slow
fast
+/-
esc
set tempo
stop
Help us to improve Ultimate-Guitar.com Take our survey!
×
   ~ = Trémolo
   / = Slide
   ^,b = Bend
   h = Hammer on
   p = pull off
   x = notas muertas
   P.. = palm mute
   *///* = slide con plumilla (deslizándola por las cuerdas)
   * = rasgueo rápido con la plumilla


Intro:
e|--12~---12~---12~----5~---12~---12~---7~---5~------0~-----------|
B|--12~---12~---12~----5~---12~---12~---7~---5~------0~-----------|
G|--12~---12~---12~----5~---12~---12~---7~---5~------0~-----------|
D|---------------------------------------------------2~-----------|
A|---------------------------------------------------2~-----------|
E|---------------------------------------------------0~-----------|


e|----------------------------------------------------------------|
B|----------------------------------------------------------------|
G|----------------------------------------------------------------|
D|----------------------------------------------------------------|
A|----------------------------------------------------------------|
E|------*12///////////////////////////////////////3---------------|

Verso 1: x4
e|----------------------------------------------------------------|
B|----------------------------------------------------------------|
G|----------------------------------------------------------------|
D|----------------------------------------------------------------|
A|----------------------------------------------------------------|
E|--0-000-3-333-5-555-6-565---------------------------------------|

e|----------------------------------------------------------------|
B|----------------------------------------------------------------|
G|----------------------------------------------------------------|
D|----------------------------------------------------------------|
A|--0-000-3-333-5-555-6-565--0-000-3-333-5h6h5h6------------------|
E|----------------------------------------------------------------|


Coro 1:

e|-------------------0~-----------------------------------------|
B|-------------------0~-----------------------------------------|
G|-------------------0~-----------------------------------------|
D|-------------------2~-----------------------------------------|
A|---9---987---7/5---2~-----------------------------------------|
E|---7---765---5/3---0~---*12/////////////////////////3---------|


Verso 2: x4
e|----------------------------------------------------------------|
B|----------------------------------------------------------------|
G|----------------------------------------------------------------|
D|----------------------------------------------------------------|
A|----------------------------------------------------------------|
E|--0-000-3-333-5-555-6-565---------------------------------------|

e|----------------------------------------------------------------|
B|----------------------------------------------------------------|
G|----------------------------------------------------------------|
D|----------------------------------------------------------------|
A|--0-000-3-333-5-555-6-565--0-000-3-333-5h6h5h6------------------|
E|----------------------------------------------------------------|


Coro 2:

e|-------------------0~-----------------------------------------|
B|-------------------0~-----------------------------------------|
G|-------------------0~-----------------------------------------|
D|-------------------2~-----------------------------------------|
A|---9---987---7/5---2~-----------------------------------------|
E|---7---765---5/3---0~-----------------------------------------|


e|--12~---12~---12~----5~---12~---12~---7~---5~------0~-----------|
B|--12~---12~---12~----5~---12~---12~---7~---5~------0~-----------|
G|--12~---12~---12~----5~---12~---12~---7~---5~------0~-----------|
D|---------------------------------------------------2~-----------|
A|---------------------------------------------------2~-----------|
E|---------------------------------------------------0~--*12/////3|


Verso x4


Fin:
e|---------------------------0~---------------------------------|
B|---------------------------0~---------------------------------|
G|---------------------------0~---------------------------------|
D|---------------------------2~---------------------------------|
A|---9---987---7/5-2---7/5---2~---------------------------------|
E|---7---765---5/3-0---5/3---0~---------------------------------|


cualquier duda les dejo mi correo
atg_gd86@


surf!!!!!!!!!!
Suggest correction
Give kudos to tab author, rate the tab!
1 2 3 4 5
comments
print report bad tab
guest
You may want to rate the tab now too:
select rating
Wanna post a correction for this tab? Suggest correction