Oops, an error
Loading. Please wait.

Nocturna Tab

143 views 1 this week
no commentswrite comment
1 2 3 4 5
2 more votes to show rating
add to favorites
launch autoscroll
font size
0
reset
how to read this tab
guitar tuner
×
Best way to learn
"Nocturna"
Autoscroll
slow
fast
+/-
esc
set tempo
stop
[SR. BIKINI - NOCTURNA: 
(la transcripción de los acordes fué tomada de este
video: 
y la tab fué de oído)
[NO ESTÁ DIVIDIDA EN PARTES, LECTURA NORMAL DE IZQUIERDA A DERECHA]

(si no saben cómo hacer los acordes, se encuentran en la parte inferior)

[AFINACIÓN: ESTÁNDAR: EADGBe]
-----------------------------------------------------------------------------

INTRO: D - Bm - G - F#m A


   D       Bm     G       A               D       Bm        G       A
e]-2h5p2--------2-----2-2-2-------|   e]-10------7--------2-----2-2-2-------|
B]----------------3---------3p0-3-|   B]---10-----7---------3---------3p0-3-|
G]-----------4--------------------|x2 G]---------------4--------------------|x2
D]--------------------------------|   D]------------------------------------|
A]--------------------------------|   A]------------------------------------|
E]--------------------------------|   E]------------------------------------|

   D        D7           G        Gm           D                   D7
e]-2--------2--------|-5/7--7-10-7-------6-8-6-----5-5-5/7-5--2-2-2/5------|
B]-3--------1--------|------------11-----------10--------------------------|
G]-2--------2--------|-----------------------------------------------------|
D]-------------------|-----------------------------------------------------|
A]-------------------|-----------------------------------------------------|
E]-------------------|-----------------------------------------------------|

     G        Gm           D       Bm       G      A
e]-5/7--7-10-7-------6-8-6-10----7-------------2-2-2-------|
B]------------11-------------10----7-------7--------3p0-3--|
G]--------------------------------------4---7--------------|
D]---------------------------------------------------------|
A]---------------------------------------------------------|
E]---------------------------------------------------------|

   D      Bm       G       A
e]-10----7-------2-----2-2-2--------|
B]---10---7--------3---------3p0-3--|-
G]------------4---------------------|
D]----------------------------------|
A]----------------------------------|
E]----------------------------------|

   D           Bm             G
e]--------10---8-10---8-10----13-13p10-----------|
B]-0----8b--8-------8------8----------13p10------|
G]-----------------------------------------12b---|
D]-----------------------------------------------|
A]-----------------------------------------------|
E]-----------------------------------------------|
   A                                D
e]--------------------------------------
B]--------------------------------------
G]-12-10-10----10-12-10----10-----------
D]----------12----------12----10-10/12--
A]--------------------------------------
E]--------------------------------------

              Bm              G
---------------------------------------------|
---------------------------------------------|
--------------10--10----10-12-12b-12^-12^----|
---12-0-10-12---12--12-----------------------|
---------------------------------------------|
---------------------------------------------|

            A                          D        Bm     G       A
e]--------------------------------| e]-2h5p2---------2-----2-2-2-------|
B]--------------------------------| B]-----------------3---------3p0-3-|
G]-12^-12^--12p10-10---10---------| G]------------4--------------------|x2
D]------------------12---12--10\X-| D]---------------------------------|
A]--------------------------------| A]---------------------------------|
E]--------------------------------| E]---------------------------------|

   D        Bm      G         A
e]-10------7--------2-----2-2-2-------|
B]---10-----7---------3---------3p0-3-|
G]---------------4--------------------|x2
D]------------------------------------|
A]------------------------------------|
E]------------------------------------|

   D        D7           G        Gm
e]-2--------2--------|-5/7--7-10-7------
B]-3--------1--------|------------11----
G]-2--------2--------|------------------
D]-------------------|------------------
A]-------------------|------------------
E]-------------------|------------------

       D                    D7
-6-8-6-----5-5-5/7-5--2-2-2/5------|
-------10--------------------------|
-----------------------------------|
-----------------------------------|
-----------------------------------|
-----------------------------------|

   G          Gm             D     Bm       G      A
e]-5/7--7-10-7-------6-8-6-10----7-------------2-2-2-------|
B]------------11-------------10----7-------7--------3p0-3--|
G]--------------------------------------4---7--------------|
D]---------------------------------------------------------|
A]---------------------------------------------------------|
E]---------------------------------------------------------|
   D      Bm       G       A
e]-10----7-------2-----2-2-2--------|   e]------------|
B]---10---7--------3---------3p0-3--|   B]-0----------|
G]------------4---------------------|x3 G]------------|
D]----------------------------------|   D]------------|
A]----------------------------------|   A]------------|
E]----------------------------------|   E]------------|
(la última vez, se toca más lento)

[outro--------------------------]

e]---------------------2-------|]
B]-----------------3-----------|]
G]-2-2/3-3-3\2---2---2---------|]
D]-----------------------------|]
A]-----------------------------|]
E]-----------------------------|]


ACORDES:

   D  D7 Bm  G   G  Gm  F#m  A   A
e]-2--2--2---3---3--3---2----0---5-|]
B]-3--1--3---3---3--3---2----2---5-|]
G]-2--2--4---4-Ó-0--3---2----2-Ó-6-|]
D]-0-----4---5---0--5---4----2---7-|]
A]-------2---5---2--5---4----0---7-|]
E]-------2---3---3--3---2--------5-|]
Suggest correction
Give kudos to tab author, rate the tab!
1 2 3 4 5
comments
print report bad tab
guest
You may want to rate the tab now too:
select rating
Wanna post a correction for this tab? Suggest correction