Oops, an error
Loading. Please wait.

Pipeline Tab

46 views 3 this week
no commentswrite comment
1 2 3 4 5
3 more votes to show rating
add to favorites
launch autoscroll
font size
0
reset
how to read this tab
guitar tuner
×
Best way to learn
"Pipeline"
Autoscroll
slow
fast
+/-
esc
set tempo
stop
ke tranza karnales aki les dejo esta chingonsisima rolilla de los chantays
aka kon un toke d los bikinis


RIFF A:
E----------------------------------------
B----------------------------------------
G----------------------------------------
D----------------------------------------
A----------------------------------------
E--12//2---------------------------------

Riff B:

 |---------------------------------|
 |---------------------------------|
 |---------------------------------|
 |--2--2--2--2--2--2--2------------|
 |-0--3--0--3--0--3--0-------------|
 |---------------------------------|
 |
 |
 |---------------------------------|
 |---------------------------------|
 |---------------------------------|
 |--2--2--2--2--2--2--2------------|
 |-0--3--0--3--0--3--0-------------|
 |---------------------------------|

 Riff C:
 |----------------------------------------------------
 |----------------------------------------------------
 |----------------------------------------------------
 |----0-2-0-2-4-2-0-2-4-2-4-2-0-2-0-------------------
 |--2-------------------------------2-----------------
 |----------------------------------------------------
 |
 |
 |----------------------------------------------------
 |----------------------------------------------------
 |----------------------------------------------------
 |-------------------------------------0-4-2-0--------
 |---------------------------------------------2------
 |----------------------------------------------------
 |
 |
 |----------------------------------------------------
 |----------------------------------------------------
 |----0-2-0-2-4-2-0-2-4-2-4-2-0-2-0-------------------
 |--2-------------------------------2-----------------
 |----------------------------------------------------
 |----------------------------------------------------
 |
 |
 |----------------------------------------------------
 |----------------------------------------------------
 |-------------------------------------0-4-2-0--------
 |---------------------------------------------2------
 |----------------------------------------------------
 |----------------------------------------------------


Riff D:
|-------------------------------------------------------
|-------------------------------------------------------
|-------------------------------------------------------
|-------------------------------------------------------
|--2-2-2--2-2-2--3-3-3--3-3-3--2-2-2--2-2-2--3-3-3--3-3-3
|-------------------------------------------------------
|
|
|-------------------------------------------------------
|-------------------------------------------------------
|-------------------------------------------------------
|-------------------------------------------------------
|--2-0-2-0-2-0-2-0-2--4-4-4-4-4-4-----------------------
|-------------------------------------------------------

RIFF E:
 ---------------------------------------
----------------------------------------
----------------------------------------
----------------------------------------
----------------------------------------
--12//2---------------------------------

 Riff F:

|---------------------------------|
|---------------------------------|
|---------------------------------|
|--2--2--2--2--2--2--2------------|
|-o--3--0--3--0--3--0-------------|
|---------------------------------|
|
|
|---------------------------------|
|---------------------------------|
|---------------------------------|
|--2--2--2--2--2--2--2------------|
|-o--3--0--3--0--3--0-------------|
|---------------------------------|


Riff G:

|----------------------------------------------------
|----------------------------------------------------
|----------------------------------------------------
|----0-2-0-2-4-2-0-2-4-2-4-2-0-2-0-------------------
|--2-------------------------------2-----------------
|----------------------------------------------------
|
|
|----------------------------------------------------
|----------------------------------------------------
|----------------------------------------------------
|-------------------------------------0-4-2-0--------
|---------------------------------------------2------
|----------------------------------------------------
|
|
|----------------------------------------------------
|----------------------------------------------------
|----0-2-0-2-4-2-0-2-4-2-4-2-0-2-0-------------------
|--2-------------------------------2-----------------
|----------------------------------------------------
|----------------------------------------------------
|
|
|----------------------------------------------------
|----------------------------------------------------
|-------------------------------------0-4-2-0--------
|---------------------------------------------2------
|----------------------------------------------------
|----------------------------------------------------

 Riff H:
|-------------------------------------------------------
|-------------------------------------------------------
|-------------------------------------------------------
|-------------------------------------------------------
|--2-2-2--2-2-2--3-3-3--3-3-3--2-2-2--2-2-2--3-3-3--3-3-3
|-------------------------------------------------------
|
|
|-------------------------------------------------------
|-------------------------------------------------------
|-------------------------------------------------------
|-------------------------------------------------------
|--2-0-2-0-2-0-2-0-2------------------------------------
|-------------------------------------------------------

Riff I:

|---------------------------------------------------------------------
|---------------------------------------------------------------------
|---------------------------------------------------------------------
|-----------2-0------------0--------------------------------0---------
|--3-0-0--3-----3-2------2---3-2-0------0-3-2-0---2-------2---3-2-----
|-------------------3-3------------1-1---------------3-3------------1-1
|
|
|---------------------------------------------------------------------
|---------------------------------------------------------------------
|---------------------------------------------------------------------
|---------------------------------------------------------------------
|--0-3-2-0---2--------------------------------------------------------
|---------------------------------------------------------------------

RIFF J:

---------------------------------------
---------------------------------------
---------------------------------------
---------------------------------------
---------------------------------------
--12//2--------------------------------

 Riff K:

|---------------------------------|
|---------------------------------|
|---------------------------------|
|--2--2--2--2--2--2--2------------|
|-o--3--0--3--0--3--0-------------|
|---------------------------------|
|
|
|---------------------------------|
|---------------------------------|
|---------------------------------|
|--2--2--2--2--2--2--2------------|
|-o--3--0--3--0--3--0-------------|
|---------------------------------|

Riff L:

|----------------------------------------------------
|----------------------------------------------------
|----------------------------------------------------
|----0-2-0-2-4-2-0-2-4-2-4-2-0-2-0-------------------
|--2-------------------------------2-----------------
|----------------------------------------------------
|
|
|----------------------------------------------------
|----------------------------------------------------
|-------------------------------------0-4-2-0--------
|---------------------------------------------2------
|----------------------------------------------------
|----------------------------------------------------
|
|
|----------------------------------------------------
|----------------------------------------------------
|----0-2-0-2-4-2-0-2-4-2-4-2-0-2-0-------------------
|--2-------------------------------2-----------------
|----------------------------------------------------
|----------------------------------------------------

|
|
|----------------------------------------------------
|----------------------------------------------------
|-------------------------------------0-4-2-0--------
|---------------------------------------------2------
|----------------------------------------------------
|----------------------------------------------------

Riff M:

|-------------------------------------------------------
|-------------------------------------------------------
|-------------------------------------------------------
|-------------------------------------------------------
|--2-2-2--2-2-2--3-3-3--3-3-3--2-2-2--2-2-2--3-3-3--3-3-3
|-------------------------------------------------------
|
|
|-------------------------------------------------------
|-------------------------------------------------------
|-------------------------------------------------------
|-------------------------------------------------------
|--2-0-2-0-2-0-2-0-2--4-4-4-4-4-4-----------------------
|-------------------------------------------------------


RIFF N:
---------------------------------------
---------------------------------------
---------------------------------------
---------------------------------------
---------------------------------------
--12//2--------------------------------

--------3------------------------------
--------3------------------------------
------3-3------------------------------
----3----------------------------------
--2------------------------------------
Suggest correction
Give kudos to tab author, rate the tab!
1 2 3 4 5
comments
print report bad tab
guest
You may want to rate the tab now too:
select rating
Wanna post a correction for this tab? Suggest correction