Oops, an error
Loading. Please wait.

Surfin Beer Tab

version 2
version 2

Whole song

36 views 1 this week
no commentswrite comment
1 2 3 4 5
3 more votes to show rating
add to favorites
launch autoscroll
font size
0
reset
how to read this tab
guitar tuner
×
Best way to learn
"Surfin Beer"
Autoscroll
slow
fast
+/-
esc
set tempo
stop
según yo....

e-------------------------------------
b-------------------------------------
g-------------------------------------
d--9--9--9--9-------------------------
a--7--7--7--7-------12>11>10>...3-----
e-------------------------------------


e-5---5-------------------------------
b-------8-5---------------------------
g-----------7h8----8-7-5--------------
d---------------------------7--2------
a-------------------------------------
e-------------------------------------
                                              x2
e-5---5------------------------5------
b-------8-5--------------------5------
g------------7h8-----8-7-5-----5------
d------------------------------7------
a-------------------------------------
e-------------------------------------


e-------------------------------------
b-------------------------------------
g----4-4h5---5p4---/7-5---------------
d--7----------------------------------
a-------------------------------------
e-------------------------------------
                                              x2
e------------------------------5------
b------------------------------5------
g----4-4h5--4h5p4---4---4------5------
d--7--------------7-------7-5--7------
a-------------------------------------
e-------------------------------------


e--5--5--5--5--5-----17---5--5--------
b--5--5--5--5--5-----x----5--5--------
g--5--5--5--5--5-----17---5--5--------
d--7--7--7--7--7----------7--7--------
a-------------------------------------
e-------------------------------------


e-------------------------------------
b-------------------------------------
g-------------------------------------
d-------------------------------------
a-0-2-33333333-2222222-55555555--3----
e-------------------------------------
                                            x2
e---------------------------5---------
b---------------------------5---------
g---------------------------5---------
d---------------------------7---------
a-0-2-33333333-77777777777------------
e-------------------------------------


e-5---5-------------------------------
b-------8-5---------------------------
g-----------7h8----8-7-5--------------
d---------------------------7--2------
a-------------------------------------
e-------------------------------------
                                             x2
e-5---5------------------------5------
b-------8-5--------------------5------
g------------7h8-----8-7-5-----5------
d------------------------------7------
a-------------------------------------
e-------------------------------------


final

e---17---
b---x----
g---17---
d--------
a--------
e--------


saludos a mi lolota que se me prende con esta rola... turum turum
Suggest correction
Give kudos to tab author, rate the tab!
1 2 3 4 5
comments
print report bad tab
guest
You may want to rate the tab now too:
select rating
Wanna post a correction for this tab? Suggest correction