Oops, an error
Loading. Please wait.

The Fly Tab

58 views 3 this week
no commentswrite comment
1 2 3 4 5
3 more votes to show rating
add to favorites
×
Save as Personal and add changes to this tab that will be seen only by you. Learn more ›
×
You can save this tab as Personal to edit and correct it or add notes. All changes will be seen only by you. Learn more »
save as personal
new!
launch autoscroll
font size
0
reset
how to read this tab
guitar tuner
Autoscroll
slow
fast
+/-
esc
set tempo
stop
Hola a todos les traigo la tab de the fly y bueno solo falta el solo
pero lo pueden improvisar.

empieza con este:riff1
e|----------------------------------------------------------------|
B|----------------------------------------------------------------|
G|----------------------------------------------------------------|
D|----------------------------------------------------------------|
A|----------------------------------------------------------------|
E|---15/-0-0-0-0-0-0-0-0-0-0-0-0-0-0-0-0-0-0-0-0-0-0-0-0-0-0------|

riff2
e|----------------------------------------------------------------|
B|----------------------------------------------------------------|
G|---------4-4-4--3-3-3--2-2-2------------------------------------|
D|--2-2-2------------------------5-5--5--4--2--4--5~--------------|
A|----------------------------------------------------------------|
E|----------------------------------------------------------------|

riff3
e|----------------------------------------------------------------|
B|----------------------------------------------------------------|
G|---------4-4-4--3-3-3--2-2-2------------------------------------|
D|--2-2-2------------------------2--4/5--4---2--4/5--4------------|
A|----------------------------------------------------------------|
E|----------------------------------------------------------------|

De nuevo el riff 2 y 3..
e|----------------------------------------------------------------|
B|----------------------------------------------------------------|
G|---------4-4-4--3-3-3--2-2-2------------------------------------|
D|--2-2-2------------------------5-5--5--4--2--4--5~--------------|
A|----------------------------------------------------------------|
E|----------------------------------------------------------------|

e|----------------------------------------------------------------|
B|----------------------------------------------------------------|
G|---------4-4-4--3-3-3--2-2-2------------------------------------|
D|--2-2-2------------------------2--4/5--4---2--4/5--4------------|
A|----------------------------------------------------------------|
E|----------------------------------------------------------------|

ahora va esto: riff4
e|--x-x--5--x-x--3--x-x--3--x-x--2--------------------------------|
B|--x-x--5--x-x--3--x-x--3--x-x--2--------------------------------|
G|--x-x--5--x-x--3--x-x--3--x-x--2--------------------------------|
D|--x-x--7--x-x--5--x-x--5--x-x--4--------------------------------|
A|--x-x--7--x-x--5--x-x--5--x-x--4--------------------------------|
E|--x-x--5--x-x--3--x-x--3--x-x--2--------------------------------|x2

aqui empieza todo de nuevo pero para que no se pierdan
el orden va asi:
riff1
riff2
riff3
riff2
riff3
riff4 x2
riff1
riff2
riff3
riff2
riff3
riff4 x2
riff1
solo
riff4 x2
riff1
riff2
riff3
riff2
riff3

Bueno eso es todo espero les sirva y saquen el solo... a surfear!!!
comentarios a mi correo: dragonvolvi_94@
Suggest correction
Give kudos to tab author, rate the tab!
1 2 3 4 5
comments
print report bad tab
guest
Wanna post a correction for this tab? Suggest correction