Oops, an error
Loading. Please wait.

The Tebe Tab

8 views 1 this week
no commentswrite comment
1 2 3 4 5
3 more votes to show rating
add to favorites
launch autoscroll
font size
0
reset
how to read this tab
guitar tuner
×
Best way to learn
"The Tebe"
Autoscroll
slow
fast
+/-
esc
set tempo
stop
Sr Bikinni

the tebe

Gtr 1

E/-----------------------------------------------
a ---(staccato)12/3xxx---------------------------
d -----------------------------------------------
g -----------------------------------------------
b -----------------------------------------------
e\-----------------------------------------------

empieza en la
                    --------
                    |rapido|
E/-----------------------------------------------
a ---000300050006000-6-5-3----------------------- * 2
d -----------------------------------------------
g -----------------------------------------------
b -----------------------------------------------
e\-----------------------------------------------

Entra guitarra 2 con LAm cada vez que regresas a
do [3] en la guitarra 1 suena LAm en la guitarra 2

E/-----------------------------------------------
a ---000300050006000-6-5-3----------------------- * 3
d -----------------------------------------------
g -----------------------------------------------
b -----------------------------------------------
e\-----------------------------------------------

Cuando se hace este camcion de la base entra REm(Dm)
en la guitarra 2

E/-----------------------------------------------
a -----------------------------------------------
d ---000300050006000-6-5-3----------------------- * 2
g -----------------------------------------------
b -----------------------------------------------
e\-----------------------------------------------
la segunda vez se queda en el 6(sol#) y pasa a la
cuerda de arriba A y roca la parte del principio
dos veces y hace lo de aca abajo...


E/-----------------------------------------------
a ---7-6-5-4-7-6-5-4-3-2-1-----------------------
d -----------------------------------------------
g -----------------------------------------------
b -----------------------------------------------
e\-----------------------------------------------

aqui la guitarra dos se va hasta Em y sube con sostenidos
hasta C#m, Entonces va asi

            Em D#m Dm C#m

despues en la zona en donde tocan sin la base en staccato
se toca
      Am Am Dm Dm Am Am Em D#m Dm C#m Em D#m Dm C#m

y al final de esto en la Gtr 2 entra la 1 con la ultima parte

E/-----------------------------------------------
a -----4-3-2-1-----------------------------------
d -----------------------------------------------
g -----------------------------------------------
b -----------------------------------------------
e\-----------------------------------------------

cabe mecionar que los acordes de la gtr 2 son con cejilla


good surfin´

acepto de todo criticas, alavos, jajajajaja
es que es mi primera cacion en tab.
MI correo es

      ed_dale21@

si me pueden pasar rolas o grupos de surf mejor pues
ando buscando uno de tantos grupos chingones en mexico de
este estilo...
Suggest correction
Give kudos to tab author, rate the tab!
1 2 3 4 5
comments
print report bad tab
guest
You may want to rate the tab now too:
select rating
Wanna post a correction for this tab? Suggest correction