Oops, an error
Loading. Please wait.

The Tube Tab

51 views 1 this week
no commentswrite comment
1 2 3 4 5
3 more votes to show rating
add to favorites
launch autoscroll
font size
0
reset
how to read this tab
guitar tuner
Autoscroll
slow
fast
+/-
esc
set tempo
stop
Help us to improve Ultimate-Guitar.com Take our survey!
×
Que onda a todos los amantes del SURF, aca dandome de alta
en la cuerda XD XD. Esta version esta tal y como va la cancion, asi que
no hay pierde, chequenla y practiquenla.


Efecto surf
E/-----------------------------------------------
a -------------12/3------------------------------
d -----------------------------------------------
g -----------------------------------------------
b -----------------------------------------------
e-----------------------------------------------

RIFF 1
E/-----------------------------------------------
a ---000300050006000-6-5-3----------------------- * 2
d -----------------------------------------------
g -----------------------------------------------
b -----------------------------------------------
e-----------------------------------------------

Entra guitarra 2 con LAm cada vez que regresas a
DO (3)

E/-----------------------------------------------
a ---000300050006000-6-5-3----------------------- * 4
d -----------------------------------------------
g -----------------------------------------------
b -----------------------------------------------
e-----------------------------------------------

RIFF 2  REm(Dm)
en la guitarra 2

E/-----------------------------------------------
a -----------------------------------------------
d ---000300050006000-6-5-3----------------------- * 2
g -----------------------------------------------
b -----------------------------------------------
e-----------------------------------------------

RIFF 1 Lam
E/-----------------------------------------------
a ---000300050006000-6-5-3----------------------- * 2
d -----------------------------------------------
g -----------------------------------------------
b -----------------------------------------------
e-----------------------------------------------

RIFF 3 (acompañado de Em D#m Dm C#m con cejilla)
E/-----------------------------------------------
a ---7-6-5-4-7-6-5-4-3-2-1-----------------------
d -----------------------------------------------
g -----------------------------------------------
b -----------------------------------------------
e-----------------------------------------------

RIFF 1 LAm
E/-----------------------------------------------
a ---000300050006000-6-5-3----------------------- * 4
d -----------------------------------------------
g -----------------------------------------------
b -----------------------------------------------
e-----------------------------------------------

RIFF 2  REm(Dm)
en la guitarra 2

E/-----------------------------------------------
a -----------------------------------------------
d ---000300050006000-6-5-3----------------------- * 2
g -----------------------------------------------
b -----------------------------------------------
e-----------------------------------------------
RIFF 1
E/-----------------------------------------------
a ---000300050006000-6-5-3----------------------- * 2
d -----------------------------------------------
g -----------------------------------------------
b -----------------------------------------------
e-----------------------------------------------

RIFF 3 (acompañado de Em D#m Dm C#m con cejilla)
E/-----------------------------------------------
a ---7-6-5-4-7-6-5-4-3-2-1-----------------------
d -----------------------------------------------
g -----------------------------------------------
b -----------------------------------------------
e-----------------------------------------------

RIFF 1
E/-----------------------------------------------
a ---000300050006000-6-5-3----------------------- * 2
d -----------------------------------------------
g -----------------------------------------------
b -----------------------------------------------
e-----------------------------------------------

aca es cuando va el bajo y la bateria, y la guitarra hace el acompañamiento
de aca abajo

Am Am Dm Dm Am Am Em D#m Dm C#m Em D#m Dm C#m

y esto se hace despuesito

E/-----------------------------------------------
a -----4-5-6-7-----------------------------------
d -----------------------------------------------
g -----------------------------------------------
b -----------------------------------------------
e-----------------------------------------------

RIFF 1
E/-----------------------------------------------
a ---000300050006000-6-5-3----------------------- * 4
d -----------------------------------------------
g -----------------------------------------------
b -----------------------------------------------
e-----------------------------------------------

RIFF 2  REm(Dm)
en la guitarra 2

E/-----------------------------------------------
a -----------------------------------------------
d ---000300050006000-6-5-3----------------------- * 2
g -----------------------------------------------
b -----------------------------------------------
e-----------------------------------------------

RIFF 1
E/-----------------------------------------------
a ---000300050006000-6-5-3----------------------- * 2
d -----------------------------------------------
g -----------------------------------------------
b -----------------------------------------------
e-----------------------------------------------

RIFF 3 (acompañado de Em D#m Dm C#m con cejilla)
E/-----------------------------------------------
a ---7-6-5-4-7-6-5-4-3-2-1-----------------------
d -----------------------------------------------
g -----------------------------------------------
b -----------------------------------------------
e-----------------------------------------------

y terminamos en LAm

si tiene dudas de la cancion, les recomiendo que escuchen la cancion y
chequen la transcripcion para que vayan viendo bien que pex va.

SAludos a todos los surferos de corazon.

ATentamente
*** BOB ***
Suggest correction
Give kudos to tab author, rate the tab!
1 2 3 4 5
comments
print report bad tab
guest
You may want to rate the tab now too:
select rating
Wanna post a correction for this tab? Suggest correction