Oops, an error
Loading. Please wait.

Tiki Surf Tab

version 1
version 1

Whole song

65 views 1 this week
no commentswrite comment
1 2 3 4 5
3 more votes to show rating
add to favorites
launch autoscroll
font size
0
reset
how to read this tab
guitar tuner
×
Best way to learn
"Tiki Surf"
Autoscroll
slow
fast
+/-
esc
set tempo
stop
Esta rolita está muy fácil y está muy buena. 
El Sr. Bikini es la ley, compren el disco.

   ~ = Trémolo
   / = Slide
   ^ = Bend

e |---------------------------------|    
B |-11~----7-9-9/10-9-7-------------|   
G |--------------------8~/3~--------|
D |---------------------------------|
A |---------------------------------|
E |---------------------------------|

e |---------------------------------|    
B |-11~----7-9-9/10-9-7-------------|   
G |--------------------8~/3~--------|
D |---------------------------------|
A |---------------------------------|
E |---------------------------------|

e |---------------------------------|    
B |-11~----7-9-9/10-9-7-------------|   
G |--------------------8~/3~--------|
D |---------------------------------|
A |---------------------------------|
E |---------------------------------|

e |---------------------------------|    
B |-11~----7-9-9/10-9-7-------------|   
G |--------------------8~/3~--------|
D |---------------------------------|
A |---------------------------------|
E |---------------------------------|

e |---------------------------------|    
B |-11~----7-9-9/10-9-7-------------|   
G |--------------------8~/3~--------|
D |---------------------------------|
A |---------------------------------|
E |---------------------------------|

e |---------------------------------|    
B |-11~----7-9-9/10-9-7-------------|   
G |--------------------8~/3~--------|
D |---------------------------------|
A |---------------------------------|
E |---------------------------------|

e |-----4-5^-5^-5^-5^-4---4-----------11~------| 
B |-4-7-----------------7---4---------11~------|
G |-----------------------------------11~------|
D |--------------------------------------------|
A |--------------------------------------------|
E |--------------------------------------------|

e |-----4-5^-5^-5^-5^-4---4-----------11~------| 
B |-4-7-----------------7---4---------11~------|
G |-----------------------------------11~------|
D |--------------------------------------------|
A |--------------------------------------------|
E |--------------------------------------------|

e |-----9----9----9-11~----14-11-14-11-14-11~-----9----9----9----------------------|
B |-11~---11---11-----------------------------------11---11---11~--7-9-9/10-9-7-11-| 
G |--------------------------------------------------------------------------------|
D |--------------------------------------------------------------------------------|
A |--------------------------------------------------------------------------------|
E |--------------------------------------------------------------------------------|

e |-9----9----9-11~---14-11-14-11-14-11~---9----9----9-----------------------------|
B |---11---11--------------------------------11---11---11~---7-9-9/10-9-7----------|
G |--------------------------------------------------------------------------------|
D |--------------------------------------------------------------------------------|
A |--------------------------------------------------------------------------------|
E |--------------------------------------------------------------------------------|

e |-----4-5^-5^-5^-5^-4---4-----------11~------| 
B |-4-7-----------------7---4---------11~------|
G |-----------------------------------11~------|
D |--------------------------------------------|
A |--------------------------------------------|
E |--------------------------------------------|

e |-----4-5^-5^-5^-5^-4---4-----------11~------| 
B |-4-7-----------------7---4---------11~------|
G |-----------------------------------11~------|
D |--------------------------------------------|
A |--------------------------------------------|
E |--------------------------------------------|

e |---------------------------------|   
B |-11~----7-9-9/10-9-7-------------|   
G |--------------------8~/3~--------|
D |---------------------------------|
A |---------------------------------|
E |---------------------------------|

e |---------------------------------|   
B |-11~----7-9-9/10-9-7-------------|   
G |--------------------8~/3~--------|
D |---------------------------------|
A |---------------------------------|
E |---------------------------------|

e |---------------------------------|   
B |-11~----7-9-9/10-9-7-------------|   
G |--------------------8~/3~--------|
D |---------------------------------|
A |---------------------------------|
E |---------------------------------|

e |---------------------------------|   
B |-11~----7-9-9/10-9-7-------------|   
G |--------------------8~/3~---11~--|  Fin
D |---------------------------------|
A |---------------------------------|
E |---------------------------------|
Suggest correction
Give kudos to tab author, rate the tab!
1 2 3 4 5
comments
print report bad tab
guest
You may want to rate the tab now too:
select rating
Wanna post a correction for this tab? Suggest correction