Oops, an error
Loading. Please wait.

Tiki Surf Tab

version 2
version 2

Whole song

98 views 1 this week
no commentswrite comment
1 2 3 4 5
3 more votes to show rating
add to favorites
launch autoscroll
font size
0
reset
how to read this tab
guitar tuner
Autoscroll
slow
fast
+/-
esc
set tempo
stop
Help us to improve Ultimate-Guitar.com Take our survey!
×
h = Hammer on
p = Pull off
~ = Trémolo


e |-------6-------------------------|
B |---------7-9-10--9-7-------------|
G |---------------------8-s-2-------|
D |---------------------------------|
A |---------------------------------|
E |---------------------------------|


e |-------6-------------------------|
B |---------7-9-10--9-7-------------|
G |---------------------8-s-2-------|
D |---------------------------------|
A |---------------------------------|
E |---------------------------------|


e |-------6-------------------------|
B |---------7-9-10--9-7-------------|
G |---------------------8-s-2-------|
D |---------------------------------|
A |---------------------------------|
E |---------------------------------|


e |-------6-------------------------|
B |---------7-9-10--9-7-------------|
G |---------------------8-s-2-------|
D |---------------------------------|
A |---------------------------------|
E |---------------------------------|


e |-------6-------------------------|
B |---------7-9-10--9-7-------------|
G |---------------------8-s-2-------|
D |---------------------------------|
A |---------------------------------|
E |---------------------------------|


e |-------6-------------------------|
B |---------7-9-10--9-7-------------|
G |---------------------8-s-2-------|
D |---------------------------------|
A |---------------------------------|
E |---------------------------------|


e |----------------------------11v--|
B |-----7-9-9h10-9h10p9p7h9----11v--|
G |---8-----------------------------|
D |---------------------------------|
A |---------------------------------|
E |---------------------------------|


e |----------------------------11v--|
B |-----7-9-9h10-9h10p9p7h9----11v--|
G |---8-----------------------------|
D |---------------------------------|
A |---------------------------------|
E |---------------------------------|


e |-----9---9----9-11~-14-11-14-11-14-11~---|
B |-11~---11--11----------------------------|
G |-----------------------------------------|
D |-----------------------------------------|
A |-----------------------------------------|
E |-----------------------------------------|


e |-9----9----9---------------------|
B |---11---11---11~-7-9-9h10-9-7----|
G |---------------------------------|
D |---------------------------------|
A |---------------------------------|
E |---------------------------------|


e |-----9---9----9-11~-14-11-14-11-14-11~---|
B |-11~---11--11----------------------------|
G |-----------------------------------------|
D |-----------------------------------------|
A |-----------------------------------------|
E |-----------------------------------------|


e |-9----9----9---------------------|
B |---11---11---11~-7-9-9h10-9-7----|
G |---------------------------------|
D |---------------------------------|
A |---------------------------------|
E |---------------------------------|


e |----------------------------11v--|
B |-----7-9-9h10-9h10p9p7h9----11v--|
G |---8-----------------------------|
D |---------------------------------|
A |---------------------------------|
E |---------------------------------|


e |----------------------------11v--|
B |-----7-9-9h10-9h10p9p7h9----11v--|
G |---8-----------------------------|
D |---------------------------------|
A |---------------------------------|
E |---------------------------------|


e |-------6-------------------------|
B |---------7-9-10--9-7-------------|
G |---------------------8-s-2-------|
D |---------------------------------|
A |---------------------------------|
E |---------------------------------|


e |-------6-------------------------|
B |---------7-9-10--9-7-------------|
G |---------------------8-s-2-------|
D |---------------------------------|
A |---------------------------------|
E |---------------------------------|


e |-------6-------------------------|
B |---------7-9-10--9-7-------------|
G |---------------------8-s-2-------|
D |---------------------------------|
A |---------------------------------|
E |---------------------------------|


e |-------6---------------------6v--|
B |---------7-9-10--9-7-------------|
G |---------------------8-s-2-------|
D |---------------------------------|
A |---------------------------------|
E |---------------------------------|

esta rola estachida y facil la otra tab esta chida tambien
chekenlas y uds decidan
Suggest correction
Give kudos to tab author, rate the tab!
1 2 3 4 5
comments
print report bad tab
guest
You may want to rate the tab now too:
select rating
Wanna post a correction for this tab? Suggest correction