Oops, an error
Loading. Please wait.

Wanna Be Bikini Tab

31 views 1 this week
no commentswrite comment
1 2 3 4 5
3 more votes to show rating
add to favorites
×
Save as Personal and add changes to this tab that will be seen only by you. Learn more ›
×
You can save this tab as Personal to edit and correct it or add notes. All changes will be seen only by you. Learn more »
save as personal
new!
launch autoscroll
font size
0
reset
how to read this tab
guitar tuner
Autoscroll
slow
fast
+/-
esc
set tempo
stop
q tranza banda surfera ps.. aqui les dejo zta rola
 q zta superzhida!!!
asi q agarrense y a dominar olas yeah!!!!

   ~   ~   ~   ~
e--5---5---5---5----|
B--5---5---5---5----|
G--6---6---6---6----|
D--7---7---7---7----|
A--7---7---7---7----|
E--5---5---5---5----|

 todo esto va rasguenado la plumilla un poco rapido escuchen
 la rola y agarren el ritmo.

e |-------------------------------------------------------|
B |-------------------------------------------------------|
G |-------------------------------------------------------|
D |-------------------------------------------------------|
A |-5-5-4-4-3-3-4-4-5-5-4-4-3-3-4-4-5-5-4-4-3-3-4-4-5-5---|
E |-------------------------------------------------------|


e |-------------------------------------------------------|
B |-------------------------------------------------------|
G |-------------------------------------------------------|
D |-5-5-4-4-3-3-4-4-5-5-4-4-3-3-4-4-----------------------|
A |-------------------------------------------------------|
E |-------------------------------------------------------|


e |-------------------------------------------------------|
B |-------------------------------------------------------|
G |-------------------------------------------------------|
D |-------------------------------------------------------|
A |-5-5-4-4-3-3-4-4-5-5-----------------------------------|
E |-------------------------------------------------------|


e |-------------------------------------------------------|
B |-------------------------------------------------------|
G |-------------------------------------------------------|
D |--------5--5/3--3--------------------------------------|
A |--3/5--------------------------------------------------|
E |-------------------------------------------------------|


e |-------------------------------------------------------|
B |-------------------------------------------------------|
G |-------------------------------------------------------|
D |-------------------------------------------------------|
A |-5-5-4-4-3-3-4-4-5-5-----------------------------------|
E |-------------------------------------------------------|
  (todo esto se hace 2 veces)


e |-------------------------------------------------------|
B |-------------------------------------------------------|
G |-------------------------------------------------------|
D |-5-4-3-4-5-4-3-4-5-4-3-4-5-5---------------------------|
A |-5-4-3-4-5-4-3-4-5-4-3-4-5-5---------------------------|
E |-------------------------------------------------------|

e |-------------------------------------------------------|
B |-------------------------------------------------------|
G |-5-4-3-4-5-4-3-4---------------------------------------|
D |-5-4-3-4-5-4-3-4---------------------------------------|
A |-------------------------------------------------------|
E |-------------------------------------------------------|

e |-------------------------------------------------------|
B |-------------------------------------------------------|
G |-------------------------------------------------------|
D |-5-4-3-4-5-5-------------------------------------------|
A |-5-4-3-4-5-5-------------------------------------------|
E |-------------------------------------------------------|

e |-------------------------------------------------------|
B |-------------------------------------------------------|
G |-------------------------------------------------------|
D |--------5--5/3--3--------------------------------------|
A |--3/5--------------------------------------------------|
E |-------------------------------------------------------|

e |-------------------------------------------------------|
B |-------------------------------------------------------|
G |-------------------------------------------------------|
D |-5-4-3-4-5-5-------------------------------------------|
A |-5-4-3-4-5-5-------------------------------------------|
E |-------------------------------------------------------|
   (esto se hace 2 veces)

   ~   ~   ~   ~
e--5---5---5---5----|
B--5---5---5---5----|
G--6---6---6---6----|
D--7---7---7---7----|
A--7---7---7---7----|
E--5---5---5---5----|


e |-------------------------------------------------------|
B |-------------------------------------------------------|
G |-------------------------------------------------------|
D |-5-4-3-4-5-4-3-4-5-4-3-4-5-5---------------------------|
A |-5-4-3-4-5-4-3-4-5-4-3-4-5-5---------------------------|
E |-------------------------------------------------------|

e |-------------------------------------------------------|
B |-------------------------------------------------------|
G |-5-4-3-4-5-4-3-4---------------------------------------|
D |-5-4-3-4-5-4-3-4---------------------------------------|
A |-------------------------------------------------------|
E |-------------------------------------------------------|

e |-------------------------------------------------------|
B |-------------------------------------------------------|
G |-------------------------------------------------------|
D |-5-4-3-4-5-5-------------------------------------------|
A |-5-4-3-4-5-5-------------------------------------------|
E |-------------------------------------------------------|

e |-------------------------------------------------------|
B |-------------------------------------------------------|
G |-------------------------------------------------------|
D |--------5--5/3--3--------------------------------------|
A |--3/5--------------------------------------------------|
E |-------------------------------------------------------|

e |-------------------------------------------------------|
B |-------------------------------------------------------|
G |-------------------------------------------------------|
D |-5-4-3-4-5-5-------------------------------------------|
A |-5-4-3-4-5-5-------------------------------------------|
E |-------------------------------------------------------|
   (esto se hace otra vez 2 veces)

e |-------------------------------------------------------|
B |-------------------------------------------------------|
G |-------------------------------------------------------|
D |-------------------------------------------------------|
A |-5-5-4-4-3-3-4-4-5-5-4-4-3-3-4-4-5-5-4-4-3-3-4-4-5-5---|
E |-------------------------------------------------------|


e |-------------------------------------------------------|
B |-------------------------------------------------------|
G |-------------------------------------------------------|
D |-5-5-4-4-3-3-4-4-5-5-4-4-3-3-4-4-----------------------|
A |-------------------------------------------------------|
E |-------------------------------------------------------|


e |-------------------------------------------------------|
B |-------------------------------------------------------|
G |-------------------------------------------------------|
D |-------------------------------------------------------|
A |-5-5-4-4-3-3-4-4-5-5-----------------------------------|
E |-------------------------------------------------------|


e |-------------------------------------------------------|
B |-------------------------------------------------------|
G |-------------------------------------------------------|
D |--------5--5/3--3--------------------------------------|
A |--3/5--------------------------------------------------|
E |-------------------------------------------------------|


e |-------------------------------------------------0-0---|
B |-------------------------------------------------0-0---|
G |-------------------------------------------------0-0---|
D |------------------esto se hace la segunda vez>>--5-5---|
A |-5-5-4-4-3-3-4-4--despues de los cuatros----->>--5-5---|
E |-------------------------------------------------0-0---|
  (todo esto se hace otra vez 2 veces pero mas lento)

Esta es la primera rola q subo jaja zpero les gust!!!
Mentadas d madre y d mas a sock_juan99@
Suggest correction
Give kudos to tab author, rate the tab!
1 2 3 4 5
comments
print report bad tab
guest
Wanna post a correction for this tab? Suggest correction