Oops, an error
Loading. Please wait.

Where's The Burrito Chelero? Bass

47 views 1 this week
no commentswrite comment
1 2 3 4 5
3 more votes to show rating
add to favorites
launch autoscroll
font size
0
reset
guitar tuner
×
Best way to learn
"Where's The Burrito Chelero?"
Autoscroll
slow
fast
+/-
esc
set tempo
stop
K TrAnCe:
HE AKI ALGO MAS DE LOS BIKINIS
SECILLA NO CREEN
DE LOS THE CAMANEIS PARA EL MUNDO


SURF AND BEER'S


RIFF 1
G)--------------
D)--------------
A)--------------
E)-0-3-4-5-5-5--X20

RIFF 2
G)----------------------------------------
D)------------------14-12-----------------
A)-------------------------14-12----------
E)--4/8-6/10/6-12-----------------14-12---X1


RIFF 3
G)--------------
D)--------------
A)--------------
E)-0-3-4-5-5-5--X20


RIFF 2
G)------------------
D)------------------
A)------------------
E)--4/8-6/10/6-12---X1


HAS PRONTO SURFERS
Suggest correction
Give kudos to tab author, rate the tab!
1 2 3 4 5
comments
print report bad tab
guest
You may want to rate the tab now too:
select rating
Wanna post a correction for this tab? Suggest correction