Oops, an error
Loading. Please wait.

Where's The Burrito Chelero? Tab

50 views 1 this week
no commentswrite comment
1 2 3 4 5
3 more votes to show rating
add to favorites
launch autoscroll
font size
0
reset
how to read this tab
guitar tuner
×
Best way to learn
"Where's The Burrito Chelero?"
Autoscroll
slow
fast
+/-
esc
set tempo
stop
Where's the burrito chelero?
El Sr. Bikini
Surf Extremo


   ~ = Trémolo
   / = Slide
   ^ = Bend
   h = Hammer on
   p = Pull off
   > = Rasgueo rápido con la plumilla (desconozco nombre técnico)


            A A          A A
e |---------5-5----------5-5-----|
B |---------5-5----------5-5-----|
G |---------6-6----------6-6-----|
D |---------7-7----------7-7-----|
A |---------7-7----------7-7-----|
E |-0-3-4-5-5-5--0-3-4-5-5-5-----|

            A A          A A
e |---------5-5----------5-5-----|
B |---------5-5----------5-5-----|
G |---------6-6----------6-6-----|
D |---------7-7----------7-7-----|
A |---------7-7----------7-7-----|
E |-0-3-4-5-5-5--0-3-4-5-5-5-----|

            A A          A A
e |---------5-5----------5-5-----|
B |---------5-5----------5-5-----|
G |---------6-6----------6-6-----|
D |---------7-7----------7-7-----|
A |---------7-7----------7-7-----|
E |-0-3-4-5-5-5--0-3-4-5-5-5-----|

e |---------8^-7^-5-4-5^-5---------8^-7^-5-4-5^---------|
B |----------------------5------------------------------|
G |-----------------------------------------------------|
D |-----------------------------------------------------|
A |-----------------------------------------------------|
E |-0-3-4-5----------------0-3-4-5----------------------|

e |---------8^-7^-5-4-5-----------8^-7^-5-4-5^----------|
B |---------------------5-------------------------------|
G |-----------------------------------------------------|
D |-----------------------------------------------------|
A |-----------------------------------------------------|
E |-0-3-4-5---------------0-3-4-5-----------------------|

e |-4/8-6/10/6-12--4/8-6/10/6-12~------|
B |------------12-------------12~------|
G |------------------------------------|
D |------------------------------------|
A |------------------------------------|
E |------------------------------------|

            A A          A A
e |---------5-5----------5-5-----|
B |---------5-5----------5-5-----|
G |---------6-6----------6-6-----|
D |---------7-7----------7-7-----|
A |---------7-7----------7-7-----|
E |-0-3-4-5-5-5--0-3-4-5-5-5-----|

            A A          A A
e |---------5-5----------5-5-----|
B |---------5-5----------5-5-----|
G |---------6-6----------6-6-----|
D |---------7-7----------7-7-----|
A |---------7-7----------7-7-----|
E |-0-3-4-5-5-5--0-3-4-5-5-5-----|

e |--------------------------8-11-10-8-10-8-------------------------|
B |-9/10-9/10-9/10-9/10-9/10----------------10--8h10-10-8-8h10/>6---|
G |--------------------------------------------9--------------------|
A |-----------------------------------------------------------------|
E |-----------------------------------------------------------------|

e |--------------------------8-11-10-8-10-8-------------------------|
B |-9/10-9/10-9/10-9/10-9/10----------------10--8h10-10-8-8h10------|
G |--------------------------------------------9--------------------|
A |-----------------------------------------------------------------|
E |-----------------------------------------------------------------|

e |----------------------------------5--|
B |-10-------------------------------5--|
G |----9-7-5-7/8-7-5-7/8-7-5-7-5-----6--|
D |------------------------------7-5-7--|
A |----------------------------------7--|
E |----------------------------------5--|

e |----------------------------------5--|
B |-10-------------------------------5--|
G |----9-7-5-7/8-7-5-7/8-7-5-7-5-----6--|
D |------------------------------7-5-7--|
A |----------------------------------7--|
E |----------------------------------5--|

e |-4/8-6/10/6-12--4/8-6/10/6-12~------|
B |------------12-------------12~------|
G |------------------------------------|
D |------------------------------------|
A |------------------------------------|
E |------------------------------------|

            A A          A A
e |---------5-5----------5-5-----|
B |---------5-5----------5-5-----|
G |---------6-6----------6-6-----|
D |---------7-7----------7-7-----|
A |---------7-7----------7-7-----|
E |-0-3-4-5-5-5--0-3-4-5-5-5-----|

            A A          A A
e |---------5-5----------5-5-----|
B |---------5-5----------5-5-----|
G |---------6-6----------6-6-----|
D |---------7-7----------7-7-----|
A |---------7-7----------7-7-----|
E |-0-3-4-5-5-5--0-3-4-5-5-5-----|

e |---------8^-7^-5-4-5^-5---------8^-7^-5-4-5^---------|
B |----------------------5------------------------------|
G |-----------------------------------------------------|
D |-----------------------------------------------------|
A |-----------------------------------------------------|
E |-0-3-4-5----------------0-3-4-5----------------------|

e |---------8^-7^-5-4-5-----------8^-7^-5-4-5^----------|
B |---------------------5-------------------------------|
G |-----------------------------------------------------|
D |-----------------------------------------------------|
A |-----------------------------------------------------|
E |-0-3-4-5---------------0-3-4-5-----------------------|

e |-4/8-6/10/6-12--4/8-6/10/6-12~------|
B |------------12-------------12~------|
G |------------------------------------|
D |------------------------------------|
A |------------------------------------|
E |------------------------------------|

PAUSA

e |---------8^-7^-5-4-5^-5---------8^-7^-5-4-5^---------|
B |----------------------5------------------------------|
G |-----------------------------------------------------|
D |-----------------------------------------------------|
A |-----------------------------------------------------|
E |------------------------0-3-4-5----------------------|

e |---------8^-7^-5-4-5-----------8^-7^-5-4-5^----------|
B |---------------------5-------------------------------|
G |-----------------------------------------------------|
D |-----------------------------------------------------|
A |-----------------------------------------------------|
E |-0-3-4-5---------------0-3-4-5-----------------------|

e |-4/8-6/10/6-12--4/8-6/10/6-12~------|
B |------------12-------------12~------|
G |------------------------------------|
D |------------------------------------|  FIN
A |------------------------------------|
E |------------------------------------|
Suggest correction
Give kudos to tab author, rate the tab!
1 2 3 4 5
comments
print report bad tab
guest
You may want to rate the tab now too:
select rating
Wanna post a correction for this tab? Suggest correction