Oops, an error
Loading. Please wait.

La Noche Me Resbala Tab

40 views 1 this week
no commentswrite comment
1 2 3 4 5
3 more votes to show rating
add to favorites
launch autoscroll
font size
0
reset
how to read this tab
guitar tuner
Autoscroll
slow
fast
+/-
esc
set tempo
stop
Weno este es el punteillo de la cancion. No se si esta del todo
exacto pero suena bien.

h = hammer on (golpear la cuerda en el traste que indica
              (ej. 8h9  con el traste 8 pisado, se golpea el
              (9 y se kita el dedo)
/ = slide (deslizar de un traste a otro)

e|---------------------------8-----------------------------
B|--9-9-9-9-11-11---11-11-11-9-11-9-9----------------------
G|--8-8-8-8-8--8----8--8--8-------8-8----------------------
D|---------------------------------------------------------
A|---------------------------------------------------------
E|---------------------------------------------------------

e|---------------------------8-8-8--8-8-8-8h9-8--8-8-8h9---
B|--9-9-9-9-11-11---11-11-11-9-9-9--9-9-9----9----------9--
G|--8-8-8-8-8--8----8--8--8--------------------------------
D|---------------------------------------------------------
A|---------------------------------------------------------
E|---------------------------------------------------------

e|--8-8-8-8/11-11/13-13/15-15^16-15^16---------------------
B|---------------------------------------------------------
G|---------------------------------------------------------
D|---------------------------------------------------------
A|---------------------------------------------------------
E|---------------------------------------------------------

Bueno eso es todo. A mi me suena casi igual. Tendra fallos pero
se acerca bastante al original.
Enga un saludo a todos.
JaV0
Suggest correction
Give kudos to tab author, rate the tab!
1 2 3 4 5
comments
print report bad tab
guest
Wanna post a correction for this tab? Suggest correction