Oops, an error
Loading. Please wait.

All I Ever Wondered Chords

442 views 18 this week
no commentswrite comment
1 2 3 4 5
3 more votes to show rating
add to favorites
launch autoscroll
font size
0
reset
transpose
0
reset
simplify chords
display chords
guitar tuner
Autoscroll
slow
fast
+/-
esc
set tempo
stop
Help us to improve Ultimate-Guitar.com Take our survey!
×
Author
Difficulty
intermediate
-------------------------------------------------------------------------------
               ALL I EVER WONDERED - St. Paul & The Broken Bones
-------------------------------------------------------------------------------
Tabbed by: ruiDiogo

ALBUM: SEA OF NOISE
Youtube link: https://www.youtube.com/watch?v=4ZFhnzTriqU

TUNING: Standard

Side note: All chords in () are transitional, feel free to omit them. Just have a listen from the
included yt link. All chords and some rythms posted below. Happy playing :)

[INTRO]
Eb  Cm7/D  Cm (Cm7/D) Eb  Cm7/D  Cm 

[VERSE 1]
       Gm
Velvet fist in the gut
       (F/A) Bb7                   Am7  D7+  
While every- one is slinging mud
      Gm
Jesus found his politics
(F/A) Bb7               Am7  D7+
But   no- body listens
Gm
Rent, it will rise
    (F/A) Bb7                  Am7                  D7+
But our   doctors keep us high    (we can't get too low)
Gm            (F/A) Bb7
I know it's all    broken
    Am7             D7+
But I ain't got the focus


[PRE-CHORUS]
Eb
Is it hell, is it well?
             C
Is-a anybody gonna care?

[CHORUS]
Bb                             Cm  Cm7/D  Eb
I can't tell what side I'm on
Bb                                 Cm  Cm7/D  Eb
I can't tell what's right or wrong
Bb                                 Cm  Eb
We ain't ever gonna sing one song
Eb                  Cm7/D   Cm
Love goes hate goes now I'm left all alone


[VERSE 2]
     Gm       
Everyone seems to shout
  (F/A) Bb7                    Am7  D7+ (D7-)
But we  get lost in the sound
Gm
Follow your sister
(F/A) Bb7                           Am7  D7+ (D7-)
      Please just try to hold her
Gm           (F/A) Bb7
I can't seem to    focus
Am7             D7+
I know it's all broken


[PRE-CHORUS]
Eb
Is it hell, is it well?
             C
Is-a anybody gonna care?

[CHORUS]
Bb                             Cm  Cm7/D  Eb
I can't tell what side I'm on
Bb                                 Cm  Cm7/D  Eb
I can't tell what's right or wrong
Bb                                 Cm  Eb
We ain't ever gonna sing one song
Eb                  Cm7/D   Cm
Love goes hate goes now I'm left all alone


[BRIDGE]
Gm        
All I ever wondered
Cm
All I ever wondered
              Cm7/D Eb
Would we make it    through?
Dm
All I ever wondered
Cm
All I ever wondered
              Cm7/D Eb
Would we make it    through?
        C7
Make it through

[CHORUS]
Bb                             Cm  Cm7/D  Eb
I can't tell what side I'm on
Bb                                 Cm  Cm7/D  Eb
I can't tell what's right or wrong
Bb                                 Cm  Eb
We ain't ever gonna sing one song
Eb                  Cm7/D   Cm
Love goes hate goes now I'm left all alone
Eb                  Cm7/D   Cm
Love goes hate goes now I'm left all alone
Eb                  Cm7/D   Cm
Love goes hate goes now I'm left all alone
Eb                  Cm7/D   Cm
Love goes hate goes now I'm left all alone

[ENDING]
Gm  Gm/F#  Gm/F  C/G


CHORDS USED:
   Eb  Cm7/D Cm   Gm   F/A  Bb7  Am7  D7+  D7-   C   Bb   Dm  Gm/F# Gm/F C/G
e|--3----3----3----3----x----6----5----x----x----0----1----5----x----x----0---|
B|--4----4----4----3----6----6----5----6----4----1----3----6----3----3----1---|
G|--3----3----5----3----5----7----5----5----5----0----3----7----3----3----0---|
D|--5----x----5----5----3----6----5----4----4----2----3----7----3----3----2---|
A|--6----5----3----5----x----8----7----5----5----3----1----5----x----x----3---|
E|--x----x----x----3----5----6----5----x----x----x----x----x----2----1----3---|

STRUMMING PATTERN DETAIL (Chorus):
   "I can't tell what side I'm on"
e|--1-------------------------------3-3-----3-----3---|
B|--3-------------------------------4-4-----4-----4---|
G|--3----(let ring)-----------------5-5-----3-----3---|
D|--3-------------------------------5-5-----x-----5---|
A|--1-------------------------------3-3-----5-----6---|
E|--x-------------------------------x-x-----x-----x---|
    Bb                              Cm    Cm7/D   Eb 

   "I can't tell what's right or wrong"
e|--1-----------------------------------3-3-----3-----3---|
B|--3-----------------------------------4-4-----4-----4---|
G|--3----(let ring)---------------------5-5-----3-----3---|
D|--3-----------------------------------5-5-----x-----5---|
A|--1-----------------------------------3-3-----5-----6---|
E|--x-----------------------------------x-x-----x-----x---|
    Bb                                  Cm    Cm7/D   Eb  

   "We ain't ever gonna sing one song"
e|--1-----------------------------------3------3---|
B|--3-----------------------------------4------4---|
G|--3----(let ring)---------------------5------3---|
D|--3-----------------------------------5------5---|
A|--1-----------------------------------3------6---|
E|--x-----------------------------------x------x---|
    Bb                                  Cm     Eb  
Suggest correction
Give kudos to tab author, rate the tab!
1 2 3 4 5
comments
print report bad tab
guest
You may want to rate the tab now too:
select rating
Wanna post a correction for this tab? Suggest correction