Oops, an error
Loading. Please wait.
862 views 6 this week
no commentswrite comment
1 2 3 4 5
3 more votes to show rating
add to favorites
×
Save as Personal and add changes to this tab that will be seen only by you. Learn more ›
×
You can save this tab as Personal to edit and correct it or add notes. All changes will be seen only by you. Learn more »
launch autoscroll
font size
0
reset
how to read this tab
guitar tuner
edit
Autoscroll
slow
fast
+/-
esc
set tempo
stop
Author
About this tab version
Corrected the chords and filled in licks that were absent from other versions. Was this info helpful? Yes No
Taken from OurVinyl Sessions Version:  https://www.youtube.com/watch?v=z7s9A3s8iv8


[Intro]

e|-------------------------------------------------------------------------10----------------|
B|-------------------------8--8--10--8--7---------------------8--8--10--8--------------------|
G|--------9--9--9--7-------7------------7----9--9--9--7-------7---------------9--9--9--7-----|
D|--------------------9----9------------9----------------9----9---------------------------9--|
A|------------------------10------------7--------------------10------------------------------|
E|-------------------------------------------------------------------------------------------|


[Verse]  This ain't the heart ache...
      .     .       h .     h       .     .       h .     p 
e|--0~--0--x--0--0--------------------3--x--3--3------------------|
B|--0~--0--x--0--0--------------------0--x--0--0------------------|
G|.-0~--0--x--0--0------0-0-----0-----0--x--0--0------0-0--------.|  2x
D|.-2~--2--x--2--2--0-2-----0-2-------0--x--0--0--0-2-----2-0----.|
A|--2~--2--x--2--2-----------------2--2--x--2--2--------------2---|
E|--0~--0--x--0--0-----------------3--3--x--3--3------------------|

You Got your limit...
                    h .     h    
e|--x--x---5---5-------------------------------5------|
B|--7--7---5---5----------------------7-----7--5------|
G|--7--7---5---5------------------------7---7--5------|
D|--7--7---7---7------5-------5-----7-----7-7--7------|
A|--x--x---7---7--5-7-----5-7---------------x--7------|
E|--7--7---5---5------------------7---------7--5------|

Em                          G                    
This ain’t the heartache    that I thought I knew
Em                      G                      
This ain’t the party    that I thought we’d do
   Bm7              Am
You Got your limit, baby I Got mine
Bm7        Am                           
Six Eleven-3369 


[Chorus] 1

(slow arpeggios)
e|-------------------------|
B|--12--12--12--12---12-15-|
G|--12--11--12--12-14------|
D|--12--12--12--12---------|
A|--10--10--10-------------|
E|-------------------------|
then...
e|-----------------|
B|-----------------|
G|---9--9--9--7----|
D|---------------9-|
A|-----------------|
E|-----------------|

    G   Gmaj7   G   G
You Got to call me, baby


[Verse]

V2 same as first.  May try this lick after G chord...

e|------------------------0---------|
B|--8/10-8~-5-5-5-5-3-0---0---------|
G|--7/9--7~-4-4-4-4-2-0---0--etc----|
D|------------------------2---------|
A|------------------------2---------|
E|----------------------0-0---------|

                    h .     h    
e|--x--x---x---x--------------------------------------|
B|--7--7---5---5----------------------7-----7--5------|
G|--7--7---5---5------------------------7---7--5------|
D|--7--7---7---7------5-------5-----7-----7-7--7------|
A|--x--x---7---7--5-7-----5-7---------------x--7------|
E|--7--7---5---5------------------7---------7--5------|

Em                      G    
We ain’t the lovers     that’ll tear it down
Em                       G 
   We ain’t the fortune    all over this town
Bm7                Am
You Got your limit, baby I Got mine
Bm7        Am                           
Six Eleven-3369 


[Chorus] 2

(slow arpeggios)
e|--------------------------2-|
B|--12--12--10---8---8--12--3-|
G|--12--11--10---9---8--12--2-|
D|--12--12--12--10--10--12--0-|
A|--10--10--10--10--10--10----|
E|--------------(8)-(8)-------|

                G          Gmaj7       
You Got to call me, baby
G7sus2                       C
   I need you to pick up that telephone
Cm                    G             Gmaj7
And dial this lover’s heartache
 G7sus2               C 
I need you to call me
 Cm                  G
     I need to hear your sweet voice
  D    Dsus4     D5
Let me let me let me let me hear you again

[Break]  Sam and Dave break (listen for strumming pattern)

    G  C6/G   G 
e|--7----5----3----|
B|--8----5----3----|
G|--7----5----4----|  
D|--9----5----5----|
A|-----------------|
E|-----------------|

I need you I need you
I need I need you baby
I need I need I need I need I need I need you baby
I need I need I need I need I need I need you baby
I Got to Get you pick it up that telephone
Please please oh baby...

Bm7                 Am
You Got your limit, baby I Got mine
Bm7        Am                           
Six Eleven-3369 

(ad lib)

Go out on Sam and Dave chords...


______________(Clean version)__________________


[Intro]

G     E7sus2    G    Em7


[Verse] 

Em                          G                    
This ain’t the heartache    that I thought I knew
Em                      G                      
This ain’t the party    that I thought we’d do
   Bm7              Am
You Got your limit, baby I Got mine
Bm7        Am                           
Six Eleven-3369 


[Chorus]

    G   Gmaj7   G   G
You Got to call me, baby


[Verse] 

Em                      G    
We ain’t the lovers     that’ll tear it down
Em                       G 
   We ain’t the fortune    all over this town
Bm7                Am
You Got your limit, baby I Got mine
Bm7        Am                           
Six Eleven-3369 


[Chorus]

                G          Gmaj7       
You Got to call me, baby
G7sus2                       C
   I need you to pick up that telephone
Cm                    G             Gmaj7
And dial this lover’s heartache
 G7sus2               C 
I need you to call me
 Cm                  G
     I need to hear your sweet voice
  D    Dsus4     D5
Let me let me let me let me hear you again


[Break]

G   C6/G   G
I need you I need you
I need I need you baby
I need I need I need I need I need I need you baby
I need I need I need I need I need I need you baby
I Got to Get you pick it up that telephone
Please please oh baby...


[Chorus]

Bm7                 Am
You Got your limit, baby I Got mine
Bm7        Am                           
Six Eleven-3369 


[ad lib]

Go out on Sam and Dave chords...



************************************

| x   Dead note
| (n) Ghost note
| \   Slide down
| ~   Vibrato

************************************

            
            
Suggest correction
Creating personal tab
Creating personal tab
You can edit any tab online and save it as your Personal.

You can edit, replace or remove any tab part or add personal notes – all changes will be seen only by you.

Personal tabs can be accessed anytime from any device, even offline.
Learn more »
Give kudos to tab author, rate the tab!
1 2 3 4 5
comments
print report bad tab
guest
You may want to rate the tab now too:
select rating
Wanna post a correction for this tab? Suggest correction