Oops, an error
Loading. Please wait.

Cannonball Jamaal Tab

4 views 1 this week
no commentswrite comment
1 2 3 4 5
3 more votes to show rating
add to favorites
launch autoscroll
font size
0
reset
how to read this tab
guitar tuner
Autoscroll
slow
fast
+/-
esc
set tempo
stop
Help us to improve Ultimate-Guitar.com Take our survey!
×
Author
Difficulty
intermediate
Pretty much the same riff throughout on guitar 1 and guitar two plays a couple different riffs at different
parts of the song. Something like this


[Intro]

Guitar 1 (x4)
e|---------------------------------------------------------------------------|
B|-----------2----------2-----------2----------2-----------------------------|
G|--------0----------0-----------0----------0--------------------------------|
D|------2----------2-----------2----------2----------------------------------|
A|---0----------0-----------0----------0-------------------------------------|
E|---------------------------------------------------------------------------|


[Verse 1]

Guitar 1 (pretty much plays this the whole song)
e|---------------------------------------------------------------------------|
B|-----------2----------2----------2-----------2-----------------------------|
G|--------0----------0----------0-----------0--------------------------------|
D|------2----------2----------2-----------2----------------------------------|
A|---0----------0----------0-----------0-------------------------------------|
E|---------------------------------------------------------------------------|

Guitar 2
e|---------------------12------15-14-----------------------------------------|
B|-----------------------------------15-14-----------------------------------|
G|---------------------------------------------------------------------------|
D|---------------------------------------------------------------------------|
A|---------------------------------------------------------------------------|
E|---------------------------------------------------------------------------|


[Chorus]

Guitar 2
e|------7--------------------------------15--14------------------------------|
B|--------8----10--8--------------------------------15--14-------------------|
G|----------9---------9------------------------------------------------------|
D|---------------------------------------------------------------------------|
A|---------------------------------------------------------------------------|
E|---------------------------------------------------------------------------|
   
Guitar 2 riff during outro
    PM-----------------------------------------------------|
e|---------------------------------------------------------------------------|
B|---10--12--10--8--------8--10--12--10--------------------------------------|
G|------------------9--7-----------------------------------------------------|
D|---------------------------------------------------------------------------|
A|---------------------------------------------------------------------------|
E|---------------------------------------------------------------------------|

  PM-------------------------------------------------------|
e|---------------------------------------------------------------------------|
B|---10--12--10--8--------8--10--12--10--------------------------------------|
G|------------------9--7-----------------------------------------------------|
D|---------------------------------------------------------------------------|
A|---------------------------------------------------------------------------|
E|---------------------------------------------------------------------------|

  PM-------------------------------------------------------|
e|---------------------------------------------------------------------------|
B|---------------------------------------------------------------------------|
G|----9--11--9--7--------7--9--11--9-----------------------------------------|
D|-----------------9--7------------------------------------------------------|
A|---------------------------------------------------------------------------|
E|---------------------------------------------------------------------------|

 PM--------------------------------------------------------|
e|---------------------------------------------------------------------------|
B|---------------------------------------------------------------------------|
G|----9--11--9--7--------7--9--11--9-----------------------------------------|
D|-----------------9--7------------------------------------------------------|
A|---------------------------------------------------------------------------|
E|---------------------------------------------------------------------------|


************************************

| PM  Palm mute

************************************
Suggest correction
Give kudos to tab author, rate the tab!
1 2 3 4 5
comments
print report bad tab
guest
You may want to rate the tab now too:
select rating
Wanna post a correction for this tab? Suggest correction