Oops, an error
Loading. Please wait.

Morning Dancer tab

58 views 1 this week
no commentswrite comment
1 2 3 4 5
3 more votes to show rating
add to favorites
×
Save as Personal and add changes to this tab that will be seen only by you. Learn more ›
×
You can save this tab as Personal to edit and correct it or add notes. All changes will be seen only by you. Learn more »
launch autoscroll
font size
0
reset
how to read this tab
guitar tuner
edit
Autoscroll
slow
fast
+/-
esc
set tempo
stop
Author
MORNING DANCER by St. Thomas

[Intro]
          D           A/C#        G/B         A
E|----5/|-10-----9/-|-10-----9/-|-10-----9\-|-5-----5/-|
B|------|-----------|-----------|-----------|----------|
G|------|-----------|-----------|-----------|----------|
D|------|-----------|-----------|-----------|----------|
A|------|-----------|-----------|-----------|----------|
E|------|-----------|-----------|-----------|----------|

   D           A/C#        G/B         A
E|-10-----9/-|-10----12\-|-10-----9\-|-5------|
B|-----------|-----------|-----------|--------|
G|-----------|-----------|-----------|--------|
D|-----------|-----------|-----------|--------|
A|-----------|-----------|-----------|--------|
E|-----------|-----------|-----------|--------|


[Verse]

Bm        G             A         G
  Morning makes a rythm by itself and comes closer
Bm       G              A                   Bm
  to the home where you belong, where you belong
             G              A            G
  You're the morning dancer by yourself, you move wiser
Bm          G           A                 D
  In a home where you belong, where you belong


[Chorus]

He said his heart was broken
A/C#
  Truth was never spoken
G/B                            A 
  We bought a book and laid it on the path where you walk
D
  He said his heart was broken
A/C#
  Truth was never spoken
G/B                            A 
  We bought a book and laid it on the path where you walk


   Bm                   A                    Bm                   A
E|--------------------|--------------------|--------------------|-------------------|
B|--------------------|--------------------|--------------------|-------------------|
G|--------------------|--------------------|--------------------|-------------------|
D|----------2-4~--4-x-|-2--2--0h2-0h2--0---|----------2-4~--4-x-|-2--2--0hx-0h2--0--|
A|-2--2h4-5-----------|------------------0-|-2--2h4-5-----------|-------------------|
E|--------------------|--------------------|--------------------|-------------------|


[Verse]

Bm     G           A          G
  On a Sunday afternoon, cold on the graveyard
Bm          G           A
  There's a sad feeling growing over our heads
Bm        G                  A          G
  Printed on the gravestone "Huge" with golden letters
Bm              G           A            D
  The name of a man we once met, we once met


[Chorus]

He said his heart was broken
A/C#
  Truth was never spoken
G/B                            A 
  We bought a book and laid it on the path where you walked
D
  He said his heart was broken
A/C#
  Truth was never spoken
G/B                            A 
  We bought a book and laid it on the path where you walked

   Bm                   A                    Bm                   A
E|--------------------|--------------------|--------------------|-------------------|
B|--------------------|--------------------|--------------------|-------------------|
G|--------------------|--------------------|--------------------|-------------------|
D|----------2-4~--4-x-|-2--2--0h2-0h2--0---|----------2-4~--4-x-|-2--2--0hx-0h2--0--|
A|-2--2h4-5-----------|------------------0-|-2--2h4-5-----------|-------------------|
E|--------------------|--------------------|--------------------|-------------------|

D
  He said his heart was broken
A/C#
  Truth was never spoken
G/B                            A 
  We bought a book and laid it on the path where you walked
D
  He said his heart was broken
A/C#
  Truth was never spoken
G/B                            A 
  We bought a book and laid it on the path where you walked


   D           A/C#        G/B         A
E|-10-----9/-|-10-----9/-|-10-----9\-|-5-----5/-|
B|-----------|-----------|-----------|----------|
G|-----------|-----------|-----------|----------|
D|-----------|-----------|-----------|----------|
A|-----------|-----------|-----------|----------|
E|-----------|-----------|-----------|----------|

   D           A/C#        G/B         A         Bm
E|-10-----9/-|-10----12\-|-10-----9\-|-5-------|--------|
B|-----------|-----------|-----------|------5/-|-7------|
G|-----------|-----------|-----------|---------|--------|
D|-----------|-----------|-----------|---------|--------|
A|-----------|-----------|-----------|---------|--------|
E|-----------|-----------|-----------|---------|--------|



************************************

| x  Dead note
| h  Hammer-on
| /  Slide up
| \  Slide down
| ~  Vibrato

************************************
Suggest correction
Creating personal tab
Creating personal tab
You can edit any tab online and save it as your Personal.

You can edit, replace or remove any tab part or add personal notes – all changes will be seen only by you.

Personal tabs can be accessed anytime from any device, even offline.
Learn more »
Give kudos to tab author, rate the tab!
1 2 3 4 5
comments
print report bad tab
guest
You may want to rate the tab now too:
select rating
Wanna post a correction for this tab? Suggest correction