Oops, an error
Loading. Please wait.

Cruel Tab

version 1
version 1

Whole song

30,014 views 12 this week
3 commentsread comments
1 2 3 4 5
x 8
add to favorites
launch autoscroll
font size
0
reset
how to read this tab
guitar tuner
×
Best way to learn
"Cruel"
Autoscroll
slow
fast
+/-
esc
set tempo
stop
Author
Difficulty
St. Vincent
Cruel
Strange Mercy

[Chorus]
e|-----------------------------------------------------|
B|-----------------------------------------------------|
G|------6----------------6-----------------------------|
D|--6-8---8-6-4-----6-8---8-6-4---6-8-6----------------|
A|----------------------------------------6--6---------|
E|-----------------------------------------------------|


e|-----------------------------------------------------|
B|-----------------------------------------------------|
G|------6----------------------------------------------|
D|--6-8---8-6-4-----6-8-6-4-------6-4------------------|
A|--------------------------6-6-------6-4--------------|
E|----------------------------------------6-4-2--------|

[Solo/Pre-verse]
(annie bends and slides alot in this solo)
e|-----------------------------------------------------|
B|-----------------------------------------------------|
G|-----------------------------------------------------|
D|-----------------------------------------------------|
A|-----------------------------------------------------|
E|--/9--/9--2-4-6--13--14-13--8-8----12-13-12--7-7-----|

e|-----------------------------------------------------|
B|-----------------------------------------------------|
G|-----------------------------------------------------|
D|-----------------------------------------------------|
A|-----------------------------------------------------|
E|--8-7b-7-6-4/-----/16--------------------------------|


(I watched annie play live on lettermen and she plays this)
e|-----------------------------------------------------|
B|-14---/11-----14---/11-----14-----/11---11-----------|
G|-16b----------16b----------16b----------13b----------|
D|-----------------------------------------------------|
A|-----------------------------------------------------|
E|-----------------------------------------------------|
 

e|-----------------------------------------------------|
B|-14---/11-----14---/11-----14----/11----11-----------|
G|-16b----------16b----------16b----------13b--13b-----|
D|---------------------------------------------------11|
A|-----------------------------------------------------|
E|-----------------------------------------------------|
 

************************************

| /  Slide up
| b  Bend

************************************
Suggest correction
comments
print report bad tab
3 comments total.
0 reply
Demagog 63 Oct 07, 2011 10:52 AM

Sounds about right, there might be a few mistakes and missed notes but I think it's pretty good.

0 reply
Laxan 128 Oct 27, 2011 07:32 AM

I don't think the end of the first riff is right, and maybe the not second one either.

The solo seems mostly right, but there are a few missing notes.

0 reply
Indie Purist 949 Apr 15, 2012 07:36 PM

I-----------------------------------------------------I
I-----------------------------------------------------I
I------6----------------6-----------------------------I
I--6-8---8-6-4-----6-8---8-6-4---6-8-6----------------I
I----------------------------------------6--6---------I
I-----------------------------------------------------I

I-----------------------------------------------------I
I-----------------------------------------------------I
I------6----------------------------------------------I
I--6-8---8-6-4-----6-8-6-4------4---------------------I
I--------------------------6-6----6-4----4------------I
I--------------------------------------6---6-4--------I

Solo preverse (annie bends and slides alot in this solo)
I-----------------------------------------------------I
I-----------------------------------------------------I
I-----------------------------------------------------I
I-----------------------------------------------/6-6-6I
I--/4-/4-----4-8/9-8/9-8----/8-/8-7p6-----7-6---------I
I---------6-------------8-8----------7-7---7-6--------I

guest
You may want to rate the tab now too:
select rating
Wanna post a correction for this tab? Suggest correction